Urban Dub - Soul Searching tab

soul searching

urbandub

tabbed by joshua andres

intro

guitar 1do this 4x (palm mute)e|----------------------------------|B|----------------------------------|G|----------------------------------|D|----------------------------------|A|----6-6-------7-7-7-6-6-7-7-------|E|--4-----7-7-7---------------7-7-4-| * * * * * * * * * * * * * * * *
tapos sa pang fourth.. sa last nun e-epal na si guitar 2..haha!
naka harmonize|---555-||---555-||-5-555-||-------||-------||-------|
guitar 1 (2x) and guitar 2 (4x)..
|-------------------------||-------------------------||----------44--66---------||--66--22--44--66--666----||--66--22--22--44--666----||--44--00----------444----|
so after mag 2x ng guitar 1.. gagawin niya to..
(2x)|-----------------------------------||-----------------------------------||-----------------------------------||-11-11s15-15-15s17-17s19-19-19-19--||-----------------------------------||--9--9s12-12-12s15 15s17-17-17-17--|
verse
guitar 1 (8x) palm mute|----------------------------------||----------------------------------||----------------------------------||----------------------------------||----6-6-------7-7-7-6-6-7-7-------||--4-----7-7-7---------------7-7-4-| * * * * * * * * * * * * * * * *
sa pang fourth nung sa guitar 1.. ito naman gagawin ng guitar 2..
(4x)|--444--44444---------||--444--44444---------||--444--44444---------||---------------------||---------------------||---------------------|
pre-chorus
sabay guitar 1&2|-------------------------||-------------------------||----------44--66---------||--66--22--44--66--666----||--66--22--22--44--666----||--44--00----------444----|
|-------------------------||-------------------------||----------44s6-6---------||--66--22--44s6-6---------||--66--22--22s4-4---------||--44--00-----------------|
|-------------------------||-------------------------||----------44--66---------||--66--22--44--66--666----||--66--22--22--44--666----||--44--00----------444----|
|-------------------------||-------------------------||----------44s6-6---------|===> 2x|--66--22--44s6-6---------||--66--22--22s4-4---------||--44--00-----------------|
chorus..bahala na kayo sa strumming
|---------------------------||---------------------------||---------------------------||--2--11--2--11--2--11--7---||--2--11--2--11--2--11--7---||--0--9---0--9---0--9---5---| E C# E C# E C# A
guitar 1|----------------------------------||----------------------------------||----------------------------------||----------------------------------||----6-6-------7-7-7-6-6-7-7-------||--4-----7-7-7---------------7-7-4-|
|--------------------||--------------------||--------------------||--------------------||----6-6-------7-7---||--4-----7-7-7-------|
verse
guitar 1 (4x) palm mute|----------------------------------||----------------------------------||----------------------------------||----------------------------------||----6-6-------7-7-7-6-6-7-7-------||--4-----7-7-7---------------7-7-4-| * * * * * * * * * * * * * * * *
kasabay na..
guitar 2 (4x)|--444--44444---------||--444--44444---------||--444--44444---------||---------------------||---------------------||---------------------|
pre-chorus
sabay guitar 1&2|-------------------------||-------------------------||----------44--66---------||--66--22--44--66--666----||--66--22--22--44--666----||--44--00----------444----|
|-------------------------||-------------------------||----------44s6-6---------||--66--22--44s6-6---------||--66--22--22s4-4---------||--44--00-----------------|
|-------------------------||-------------------------||----------44--66---------||--66--22--44--66--666----||--66--22--22--44--666----||--44--00----------444----|
|-------------------------||-------------------------||----------44s6-6---------|===> 2x|--66--22--44s6-6---------||--66--22--22s4-4---------||--44--00-----------------|
chorus..
|---------------------------||---------------------------||---------------------------||--2--11--2--11--2--11--7---||--2--11--2--11--2--11--7---||--0--9---0--9---0--9---5---| E C# E C# E C# A
then..sa may choose life partstrumming..|----------------------------||----------------------------||---6--9--6--9--6--9---------||---6--9--6--9--6--9--6------||---4--7--4--7--4--7--6------||---------------------4------| * *
sa may "so you go for miles.." partone strum each..|-------------||-------------||---9--6------||---9--6------||---7--4------||-------------|
tapos babagsak sa E chord then C chord..
tapos..|-----------||-----------||-----------||-2--11--7--||-2--11--7--||-0--9---5--| E C# A
tapos ending..
|-------------------------||-------------------------||----------44s6-6---------||--66--22--44s6-6---------|===> 4x|--66--22--22s4-4---------||--44--00-----------------|
Tap to rate this tab
 
# A B C D E F G H I J K L M N O P Q R S T U V W X Y Z