Vampire Weekend - A-punk tab

This is my first tab ever so we'll see how it goes...

|--9--9--12--12--7--7--10-10--2--2--2--2--2--2--2--2--||--10-10-10--10--8--8---8--8--3--3--3--3--3--3--3--3--||-----------------------------------------------------| X3|-----------------------------------------------------||-----------------------------------------------------||-----------------------------------------------------|
|--5--5--5--5--5--5--5--5--2--2--2--2--2--2--2--2--||--7--7--7--7--5--5--5--5--3--3--3--3--3--3--3--3--||--------------------------------------------------| X2|--------------------------------------------------||--------------------------------------------------||--------------------------------------------------|
|--9--9--12--12--7--7--10-10--2--2--2--2--2--2--2--2--||--10-10-10--10--8--8---8--8--3--3--3--3--3--3--3--3--||-----------------------------------------------------| X3|-----------------------------------------------------||-----------------------------------------------------||-----------------------------------------------------|
|--5--5--5--5--5--5--5--5--2--2--2--2--2--2--2--2--||--7--7--7--7--5--5--5--5--3--3--3--3--3--3--3--3--||--------------------------------------------------| X2|--------------------------------------------------||--------------------------------------------------||--------------------------------------------------|
|--9--9--12--12--7--7--10-10--2--2--2--2--2--2--2--2--||--10-10-10--10--8--8---8--8--3--3--3--3--3--3--3--3--||-----------------------------------------------------| X3|-----------------------------------------------------||-----------------------------------------------------||-----------------------------------------------------|
|--5--5--5--5--5--5--5--5--2--2--2--2--2--2--2--2--||--7--7--7--7--5--5--5--5--3--3--3--3--3--3--3--3--||--------------------------------------------------| X2|--------------------------------------------------||--------------------------------------------------||--------------------------------------------------|
then like some flute solo...
|--9--9--12--12--7--7--10-10--2--2--2--2--2--2--2--2--||--10-10-10--10--8--8---8--8--3--3--3--3--3--3--3--3--||-----------------------------------------------------| X3|-----------------------------------------------------||-----------------------------------------------------||-----------------------------------------------------|
|--5--5--5--5--5--5--5--5--2--2--2--2--2--2--2--2--||--7--7--7--7--5--5--5--5--3--3--3--3--3--3--3--3--||--------------------------------------------------| X2|--------------------------------------------------||--------------------------------------------------||--------------------------------------------------|
|--9--9--12--12--7--7--10-10--2--2--2--2--2--2--2--2--||--10-10-10--10--8--8---8--8--3--3--3--3--3--3--3--3--||-----------------------------------------------------| X3|-----------------------------------------------------||-----------------------------------------------------||-----------------------------------------------------|
|--5--5--5--5--5--5--5--5--2--2--2--2--2--2--2--2--||--7--7--7--7--5--5--5--5--3--3--3--3--3--3--3--3--||--------------------------------------------------| X2|--------------------------------------------------||--------------------------------------------------||--------------------------------------------------|
Flute solo again..."Look outside the raincoats coming say o"
Tap to rate this tab
 
# A B C D E F G H I J K L M N O P Q R S T U V W X Y Z