Vanna - Safe To Say tab

I noticed that there were no tabs  for this song so i decided that i would give it a shot.
This is my first tab so don't be to harsh and i know it's not 100% but i reckon it 
sounds good enough. 

Guitar  1

|------------------------------||------------------------------||------------------------------||--00~--------------5-55-3-33--||--00~--------------5-55-3-33--||--00~-------------------------|
|-----------------------------------------------------------------||-----------------------------------------------------------------||-----------------------------------------------------------------||-----------------------------------------------------------------| X4|--5-5-5-5-5-7-7-7-7-9-9-9-7-7-7-9-9-9-9-9-12-12-12--11-11-10-10--||-----------------------------------------------------------------|
|------------------------------------||------------------------------------||--------------------------10h11h10--||--0-0--0-0-0--0-0-0--0-0------------| X3|--0-0--0-0-0--0-0-0--0-0------------||--0-0--0-0-0--0-0-0--0-0------------|
|--------------------------||--------------------------||--777777777777777-999999--||--555555555555555-777777--||--------------------------||--------------------------|
|-----------------------------------------------------------------------||-----------------------------------------------------------------------||-----------------------------------------------------------------------||--4-4--4h5p4/5h6p5--4-4--4h5p4/5h6p5--7777777777777777-99999999999999--| X4|--------------------------------------7777777777777777-99999999999999--||-----------------------------------------------------------------------|
|--------------------------------------------------||--------------------------------------------------||--------------------------------------------------||--3~-------------------------1~----5~----0~---3~--|X2|--3~-------------------------1~----5~----0~---3~--||--3~----------------------------------------------|
|----------------------------------------------------------------------||----------------------------------------------------------------------||----------------------------------------------------------------------||--7-9-10--7-9-8--7-9-10--7-9-7-8-7--7-9-10--7-9-8--7-9-10--7-9-7-8-7--| X2|----------------------------------------------------------------------||----------------------------------------------------------------------|
|------------------------------------------------||------------------------------------------------||------------------------------------------------||--0--00-0-00---------------0-00-0-00--00-00-00--| X2|--0--00-0-00---------------0-00-0-00--00-00-00--||--0--00-0-00--5h6h5-4h5h4--0-00-0-00--00-00-00--|
|----------------------------------------------------------------------||----------------------------------------------------------------------||----------------------------------------------------------------------||--7-9-10--7-9-8--7-9-10--7-9-7-8-7--7-9-10--7-9-8--7-9-10--7-9-7-8-7--| X2|----------------------------------------------------------------------||----------------------------------------------------------------------|
|-----------------------------------------------------------------------||-----------------------------------------------------------------------||--7-8/11~--------------------------------------------------------------||-----------------------------------------------------------------------| X4|-----------------------------------------------------------------------||-----------------------------------------------------------------------|
|----------------------------------------------||--55-5-5/6/5-7-6-6/7/6--55-5-5/6/5-7-6-7/8/7--||--55-5-5/6/5-7-6-6/7/6--55-5-5/6/5-7-6-7/8/7--||----------------------------------------------| X2|----------------------------------------------||----------------------------------------------|
|-----------------------------------------------------------------------||-----------------------------------------------------------------------||-----------------------------------------------------------------------||--4-4--4h5p4/5h6p5--4-4--4h5p4/5h6p5--7777777777777777-99999999999999--| X4|--------------------------------------7777777777777777-99999999999999--||-----------------------------------------------------------------------|
|---------------------------------------------------------------------||---------------------------------------------------------------------||--777777777777777777777-777777777-8888888-9999999-99999999-77777777--||--xxxxxxxxxxxxxxxxxxxxx-xxxxxxxxx-xxxxxxx-xxxxxxx-xxxxxxxx-xxxxxxxx--| X2|--555555555555555555555-555555555-6666666-7777777-88888888-55555555--||---------------------------------------------------------------------|
Guitar 2
|------------------------------||------------------------------||------------------------------||--00~--------------5-55-3-33--||--00~--------------5-55-3-33--||--00~-------------------------|
|-----------------------------------------------------------------||-----------------------------------------------------------------||-----------------------------------------------------------------||--5-5-5-5-5-7-7-7-7-9-9-9-7-7-7-9-9-9-9-9-12-12-12--11-11-10-10--|X4|--5-5-5-5-5-7-7-7-7-9-9-9-7-7-7-9-9-9-9-9-12-12-12--11-11-10-10--||-----------------------------------------------------------------|
|-------------------------------------||-------------------------------------||---------------------------10h11h10--||--0-0--0-0-0--0-0-0--0-0-------------| X3|--0-0--0-0-0--0-0-0--0-0-------------||--0-0--0-0-0--0-0-0--0-0-------------|
|--------------------------||--------------------------||--777777777777777-999999--||--555555555555555-777777--||--------------------------||--------------------------|
|-----------------------------------------------------------||-----------------------------------------------------------||-----------------------------------------------------------||--4-4--44~------4-4--44~--7777777777777777-99999999999999--| X4|--4-4--44~------4-4--44~--7777777777777777-99999999999999--||-----------------------------------------------------------|
|---------------------------------||---------------------------------||---------------------------------||--0--0--0-00-0-0-0--0--0-00-0-0--|X6|--0--0--0-00-0-0-0--0--0-00-0-0--||--0--0--0-00-0-0-0--0--0-00-0-0--|
|------------------------------------------------||------------------------------------------------||------------------------------------------------||--0--00-0-00---------------0-00-0-00--00-00-00--| X4|--0--00-0-00---------------0-00-0-00--00-00-00--||--0--00-0-00--5h6h5-4h5h4--0-00-0-00--00-00-00--|
|----------------------------------------------||----------------------------------------------||--55-5-5/6/5-7-6-6/7/6--55-5-5/6/5-7-6-7/8/7--||--55-5-5/6/5-7-6-6/7/6--55-5-5/6/5-7-6-7/8/7--| X2|----------------------------------------------| |----------------------------------------------|
|-----------------------------------------------------------||-----------------------------------------------------------||-----------------------------------------------------------||--4-4--44~------4-4--44~--7777777777777777-99999999999999--| X4|--4-4--44~------4-4--44~--7777777777777777-99999999999999--||-----------------------------------------------------------|
|---------------------------------------------------------------------||---------------------------------------------------------------------||--777777777777777777777-777777777-8888888-9999999-99999999-77777777--||--xxxxxxxxxxxxxxxxxxxxx-xxxxxxxxx-xxxxxxx-xxxxxxx-xxxxxxxx-xxxxxxxx--| X2|--555555555555555555555-555555555-6666666-7777777-88888888-55555555--||---------------------------------------------------------------------|
Tap to rate this tab
 
# A B C D E F G H I J K L M N O P Q R S T U V W X Y Z