Slide Away tab with lyrics by Verve - Easy chords and tabs for guitar

Verve – Slide Away tab

                                                                    
E||--------------------|--------------------|----------------------|B||--------------------|--------------------|----------------------|G||--------------------|--------------------|----------------------|D||--------------------|--------------------|----------------------|A||--12----------------|--12----------------|--12------------12r---|E||--------------------|--------------------|----------------------|
----------------------------------------|----------------------|----------------------------------------|----------------------|----------------12-14--12-14--12-14--12-|--14------------------|----------12-14-------------------------|----------------------|----12-14-------------------------------|----------------14----|----------------------------------------|----------------------|
--------------------------------------------|--------------------------------|-----------------------------------12h14----|--------------------------------|---------------12-14--12-14--12-14-------14-|--12--14h12--14h12--14h12-------|---------12-14------------------------------|--------------------------------|---12-14------------------------------------|--------------------------------|--------------------------------------------|--------------------------------|
------------------------------------|------------------------------|---15h14--15h14--14--15--14-12------|------------------------------|--------------------------------14/-|--12----12--------------------|------------------------------------|-------------14--12-----------|------------------------------------|---------------------14-12----|------------------------------------|------------------------------|
------------------------|-----------------------------|-----------------------|------------------------|-----------------------------|-----------------------|------------------------|-----------------------------|-----------------------|--2----2--2-7----7------|----7----5----4--4h5h4-0--2--|--2----2--2-7---7------|--0----0--0-0--0-0------|--0----0----0----------------|--0----0--0-0---0------|------------------------|-----------------------------|-----------------------|
-------------------------|--------------------|----3----2----0---------|-------------------------|-----------3--------|--3----3----3-----------|-------------------------|--2--------2--------|------------------------|----7----5----4-----0----|--2--------0--------|------------------------|--0----0----0------------|--0-----------------|------------------------|-------------------------|--------------------|------------------------|
-----------------------|----3---2----0----------|---------------------------|---------------3-------|--3---3----3------------|---------------------------|------------2----------|------------------------|--2-4-2--------2-4----2----|-----------------------|------------------------|---------4--2------4-------|--0----0--0------------|------------------------|---------------------------|-----------------------|------------------------|---------------------------|
---------------------------|---------------------------|---------------------------|---------------------------|--2-4-2--------2-4----2----|--2-4-2--------2-4----2----|---------4--2------4-------|---------4--2------4-------|---------------------------|---------------------------|---------------------------|---------------------------|
---------------------------|----------------------------------|---------------------------|----------------------------------|--2-4-2--------2-4----2----|--0h2-0h2-0h2-0h2-0h2-0h2-0h2-0h2-|---------4--2------4-------|----------------------------------|---------------------------|----------------------------------|---------------------------|----------------------------------|
----------------------------------|----------------------------------|----------------------------------|--0h2-0h2-0h2-0h2-0h2-0h2-0h2-0h2-|--2h4-2h4-2h4-2h4-2h4-2h4-2h4-2h4-|----------------------------------|----------------------------------|----------------------------------|----------------------------------|----------------------------------|----------------------------------|----------------------------------|
--3---2---0---2---3--2--|------------------------|-----------------------------|------------------------|------------------------|-----------------------------|------------------------|------------------------|-----------------------------|------------------------|--2----2--2-7----7------|----7----5----4--4h5h4-0--2--|------------------------|--0----0--0-0--0-0------|--0----0----0----------------|------------------------|------------------------|-----------------------------|
-----------------------|-------------------------|------------------|-----------------------|-------------------------|------------------|-----------------------|-------------------------|------------------|--2----2--2-7---7------|----7----5----4--------2-|------------------|--0----0--0-0---0------|--0----0----0------------|------------------|-----------------------|-------------------------|------------------|
-------------------|-------------------|----------------------|-------------------|-------------------|------------3---------|--2----------------|-------------------|----------2-----------|--0----------------|--2----------------|--0----0--------------|-------------------|--0----------------|----------------------|-------------------|-------------------|----------------------|
---------------------------|---------------------------|---------------------------|---------------------------|-----0----2-----0----0h2---|-----0----2-----0----0h2---|--2-----2----2-----2-------|--2-----2----2-----2-------|---------------------------|---------------------------|---------------------------|---------------------------|
---------------------------|---------------------------|---------------------------|---------------------------|-----0----2-----0----0h2---|-----0----2-----0----0h2---|--2-----2----2-----2-------|--2-----2----2-----2-------|---------------------------|---------------------------|---------------------------|---------------------------|
-------------------------|---------------------------|-------------------------|-------------------------|---------------------------|-------------------------|---------2----------2----|---------0--------------0--|---------2----------2----|--2--0h2--------0h2------|-----0-2------------0-2----|--2--0h2--------0h2------|--0----------------------|----------------0-2--------|--0----------------------|-------------------------|--3------------------------|-------------------------|
---------------------------|-------------------------|---------------------------|-------------------------|---------0--------------0--|---------2----------2----|-----0-2------------0-2----|--2--0h2--------0h2------|----------------0-2--------|--0----------------------|--3------------------------|-------------------------|
---------------------------|-------------------------|---------------------------|-------------------------|---------0--------------0--|---------2----------2----|-----0-2------------0-2----|--2--0h2--------0h2------|----------------0-2--------|--0----------------------|--3------------------------|-------------------------|
---------------------------|-------------------------|---------------------------|-------------------------|---------0--------------0--|---------2----------2----|-----0-2------------0-2----|--2--0h2--------0h2------|----------------0-2--------|--0----------------------|--3------------------------|-------------------------|
---------------------------|-------------------------|---------------------------|-------------------------|---------0--------------0--|---------2----------2----|-----0-2------------0-2----|--2--0h2--------0h2------|----------------0-2--------|--0----------------------|--3------------------------|-------------------------|
---------------------------|----------------------------------|---------------------------|----------------------------------|---------0--------------0--|--0h2-0h2-0h2-0h2-0h2-0h2-0h2-0h2-|-----0-2------------0-2----|----------------------------------|----------------0-2--------|----------------------------------|--3------------------------|----------------------------------|
----------------------------------|----------------------------------|----------------------------------|--0h2-0h2-0h2-0h2-0h2-0h2-0h2-0h2-|--2h4-2h4-2h4-2h4-2h4-2h4-2h4-2h4-|----------------------------------|----------------------------------|----------------------------------|----------------------------------|----------------------------------|----------------------------------|----------------------------------|
--3---2---0---2---3----|-------------------------------|-----------------------|-------------------------------|-----------------------|--------------14/12--14/12--14/|-----------------------|-----------14------------------|-----------------------|--0----------------------------|-----------------------|-------------------------------|
-------------------------|--------------------------------------|-------------------------|--14----------------------------------|--12--14/12--------------|--14--14/12-----12--------------------|-------------------------|------------14-----14---14---14---14--|-------------------------|-------------------12---12---12---12--|-------------------------|--------------------------------------|
--12--------------------------------|----------------------|------------------14----------------|------15--------------|---------12-14----14--14/12----12---|---14-----------------|------14--------------------14------|----------------------|------12----------------------------|----------------------|------------------------------------|----------------------|
---------------------------------|--------------------|-------------------|--14-----------------------------|--------------------|-------------------|--14--14/12-----12----14----12---|--------------------|-------------------|------------14-------------------|--14----------------|--2----------------|---------------------------------|--------------------|-------------------|---------------------------------|--------------------|-------------------|
------------------------------------------------------------------|--5-5-5-5-5-5-5-5-5-5-5-5-5-5-5-5-5-5-5-5-5-5-5-5-5-5-5-5-5-5-5-5-|--6-6-6-6-6-6-6-6-6-6-6-6-6-6-6-6-6-6-6-6-6-6-6-6-6-6-6-6-6-6-6-6-|--7-7-7-7-7-7-7-7-7-7-7-7-7-7-7-7-7-7-7-7-7-7-7-7-7-7-7-7-7-7-7-7-|------------------------------------------------------------------|------------------------------------------------------------------|
------------------------------------------------------------------|--5-5-5-5-5-5-5-5-5-5-5-5-5-5-5-5-5-5-5-5-5-5-5-5-5-5-5-5-5-5-5-5-|--6-6-6-6-6-6-6-6-6-6-6-6-6-6-6-6-6-6-6-6-6-6-6-6-6-6-6-6-6-6-6-6-|--7-7-7-7-7-7-7-7-7-7-7-7-7-7-7-7-7-7-7-7-7-7-7-7-7-7-7-7-7-7-7-7-|------------------------------------------------------------------|------------------------------------------------------------------|
--12-12-12-12-12-12-12-12-12-12-12-12-12-12-12-12-12-12-12-12-12-12-12-12-12-12---10-10-10-10-10-10-10-10-10-10-10-10-10-10-10-10-10-10-10-10-10-10-10-10-10-10---9--9--9--9--9--9--9--9--9--9--9--9--9--9--9--9--9--9--9--9--9--9--9--9--9--9--------------------------------------------------------------------------------------------------------------------------------------------------------------------------------------------------------------------------------------------------
--12-12-12/14-14-14-14-14-14-14-14-14-14-14-14-14-14-14-14-14-14-14-14-14-14-14---10-10-10-10-10-10-10-10-10-10-10-10-10-10-10-10-10-10-10-10-10-10-10-10-10-10---9--9--9--9--9--9--9--9--9--9--9--9--9--9--9--9--9--9--9--9--9--9--9--9--9--9--------------------------------------------------------------------------------------------------------------------------------------------------------------------------------------------------------------------------------------------------
----------------------------------|----------------------------------|----------------------------------|----------------------------------|--0h2-0h2-0h2-0h2-0h2-0h2-0h2-0h2-|--2h4-2h4-2h4-2h4-2h4-2h4-2h4-2h4-|----------------------------------|----------------------------------|----------------------------------|----------------------------------|----------------------------------|----------------------------------|
----------------------------------|--3---2---0---2---3----|--0h2-0h2-0h2-0h2-0h2-0h2-0h2-0h2-|-----------------------|----------------------------------|-----------------------|----------------------------------|-----------------------|----------------------------------|-----------------------|----------------------------------|-----------------------|
----------------------------------|----------------------------------|----------------------------------|----------------------------------|--0h2-0h2-0h2-0h2-0h2-0h2-0h2-0h2-|--2h4-2h4-2h4-2h4-2h4-2h4-2h4-2h4-|----------------------------------|----------------------------------|----------------------------------|----------------------------------|----------------------------------|----------------------------------|
----------------------------------|--3---2---0---2---3--2--|--0h2-0h2-0h2-0h2-0h2-0h2-0h2-0h2-|------------------------|----------------------------------|------------------------|----------------------------------|------------------------|----------------------------------|------------------------|----------------------------------|------------------------|
-------------------||-------------------||--2----------------||--2----------------||--0----------------||-------------------||
Please rate this tab:
x1.0