Burning Of Rome Cry For Pompeii tab with lyrics by Virgin Steele - Easy chords and tabs for guitar

Virgin Steele – Burning Of Rome Cry For Pompeii tab

*****************************************************************
Virgin Steele- The Burning Of Rome (Cry For Pompeii)
*****************************************************************
Album: Age Of Consent
Tabber: User

Intro Riff x16|--------------------------|--------------------------||--------------------------|--------------------------||--------------------------|--------------------------||--------------------------|--------------------------||--2--------5--------7-----|-----2--------5-----0-----||-----0--0-----0--0-----0--|--0-----0--0-----0-----0--|
Riff 2 Before verse x4--------------------------|-----------------------|-------------------------|--------------------------|-----------------------|-------------------------|--------------------------|-----------------------|-------------------------|--------4--------5--------|--4--------7----5------|--------4--------7----2--|--------2--------3--------|--2--------5----3------|--------2--------5----0--|--0--0-----0--0-----0--0--|-----0--0--------------|--0--0-----0--0----------|
----------------------|----------------------|----------------------|----------------------|--------------2-------|--------3--5-----5~---|
Verse Riff x4
--------------------------|------------------------|--------------------------|------------------------|--------------------------|------------------------|--4--------5-----2-----4--|-----------2--4----4----|--2--------3-----0-----2--|-----------0--2----2----|-----0--0-----0-----0-----|--0--0--0---------------|
--------------------------|--------------------------|--------------------------|--------------------------|--------------2-----------|--------------0-----------|--------5--------5-----5--|--------4--------4-----4--|-----5-----5--------5-----|-----5-----5--------4-----|--3-----------------------|--2-----------------------|
Pre Chorus x 2--------------------|-----------------------|--------------------|-----------------------|--5------------5----|------5--5--5--5--5----|--5------------5----|------5--5--5--5--5----|--3------------3----|------3--3--3--3--3----|--------------------|-----------------------| . . . . .
--------------------|-----------------------|--------------------|-----------------------|--7------------7----|------7--7--7--7--7----|--7------------7----|------7--7--7--7--7----|--5------------5----|------5--5--5--5--5----|--------------------|-----------------------| . . . . .
chorus
-------------------|-------------------|-------------------|-------------------|-------------------|--5----------------|--2----------------|--5----------------|--2----------------|--3----------------|--0----------------|-------------------|
-------------------|-----------------------|-------------------|-------------------|-----------------------|-------------------|--7----------------|-----------------------|-------------------|--7----------------|--2--------2--2--2--2--|--2----------------|--5----------------|--2--------2--2--2--2--|--2----------------|-------------------|--0--------0--0--0--0--|--0----------------|
. . . .-------------------|-------------------|-----------------------|-------------------|-------------------|-----------------------|--5----------------|--7----------------|-----------------------|--5----------------|--7----------------|--2--------2--2--2--2--|--3----------------|--5----------------|--2--------2--2--2--2--|-------------------|-------------------|--0--------0--0--0--0--|
. . . .-------------------|-------------------|-------------------|-------------------|-------------------|-------------------|--9----------------|--5----------------|--7----------------|--9----------------|--5----------------|--7----------------|--7----------------|--3----------------|--5----------------|--0----------------|-------------------|-------------------|
-----------------------|-------------------|-------------------|-----------------------|-------------------|-------------------|-----------------------|--5----------------|--2----------------|--2--------2--2--2--2--|--5----------------|--2----------------|--2--------2--2--2--2--|--3----------------|--0----------------|--0--------0--0--0--0--|-------------------|-------------------|
. . . .-------------------|-------------------|--------------------------|-------------------|-------------------|--------------------------|--7----------------|--4----------------|--7--7--7--7--7--7--7--7--|--7----------------|--4----------------|--7--7--7--7--7--7--7--7--|--5----------------|--2----------------|--5--5--5--5--5--5--5--5--|-------------------|-------------------|--------------------------| . . . . . . . .
guitar solo
------------------15----|--10~---------------|-------------------------10--12--|--13------15------------|--------------------|-------------10--12--13----------|------------------------|--------------------|--9--10--12----------------------|------------------------|--------------------|---------------------------------|------------------------|--------------------|---------------------------------|------------------------|--------------------|---------------------------------|
--12--15--12~-----------|----------------------|------10--12----10~-------|------------------------|--10~-----------12----|--13----------------------|------------------------|----------------------|--------------------------|------------------------|----------------------|--------------------------|------------------------|----------------------|--------------------------|------------------------|----------------------|--------------------------|
--10~-----------10-12-10--|--------------------|--15b-----15b---------|--------------------------|--12~---------------|----------------------|--------------------------|--------------------|----------------------|--------------------------|--------------------|----------------------|--------------------------|--------------------|----------------------|--------------------------|--------------------|----------------------|
----------17----19----20----|--19~---------------|------------------|----------------------------|--------------------|------------------|----------------------------|--------------------|------------------|----------------------------|--------------------|------------------|----------------------------|--------------------|------------------|----------------------------|--------------------|------------------|
--15~-------15~-------|--------------10~---|--10~-------------10----|----------------------|--------------------|---------------------13-|----------------------|--------------------|------------------------|----------------------|--------------------|------------------------|----------------------|--------------------|------------------------|----------------------|--------------------|------------------------|
--------------------|--------------------|----------------------13----|--12~---------------|--13~---------------|----------15----17----------|--------------------|--------------------|----------------------------|--------------------|--------------------|----------------------------|--------------------|--------------------|----------------------------|--------------------|--------------------|----------------------------|
--12~---------------|--------------------|--------------------|--------------------|--12~---------------|--13~---------------|--------------------|--------------------|--------------------|--------------------|--------------------|--------------------|--------------------|--------------------|--------------------|--------------------|--------------------|--------------------|
----------------------13----|--12~---------------|--20~---------------|----------15----17----------|--------------------|--------------------|----------------------------|--------------------|--------------------|----------------------------|--------------------|--------------------|----------------------------|--------------------|--------------------|----------------------------|--------------------|--------------------|
-----------------------|---------------------------|----------------------|--11b------------------|----------13---------------|--11~-----9--9~-------|----------12--9~-------|----------------12----9----|----------------------|-----------------------|---------------------------|----------------------|-----------------------|---------------------------|----------------------|-----------------------|---------------------------|----------------------|
---------------------------|------------------------|----------9----------------|------------------------|---------------12----------|--12~-----10--10~-------|---------------------13----|------------------------|---------------------------|------------------------|---------------------------|------------------------|
--------------------------------|-------------------|----------------------|--------------------------------|-------------------|----------------------|----------10----12----10-12-10--|--8~---------------|----------------------|--------------------------------|-------------------|--10~-------12~-------|--------------------------------|-------------------|----------------------|--------------------------------|-------------------|----------------------|
-----------------------|---------------------------|----------------------|--11b------------------|----------13---------------|--11~-----9--9~-------|----------12--9~-------|----------------12----9----|----------------------|-----------------------|---------------------------|----------------------|-----------------------|---------------------------|----------------------|-----------------------|---------------------------|----------------------|
---------------------------|------------------------|----------9----------------|------------------------|---------------12----------|--12~-----10--10~-------|---------------------13----|------------------------|---------------------------|------------------------|---------------------------|------------------------|
--------------------------------|-------------------|----------------------|--------------------------------|-------------------|----------------------|----------10----12----10-12-10--|--8~---------------|----------------------|--------------------------------|-------------------|--10~-------12~-------|--------------------------------|-------------------|----------------------|--------------------------------|-------------------|----------------------|
-------------------------------------------------|--11~---------------|----------------------------------------------9--|--------------------|--------------10--12--13--15--13--12--10--12-----|--------------------|--10--12--13-------------------------------------|--------------------|-------------------------------------------------|--------------------|-------------------------------------------------|--------------------|
----------13--15--13------------------13--15--16--|--15~---------------|--13--15--------------15--12--13--15--------------|--------------------|--------------------------------------------------|--------------------|--------------------------------------------------|--------------------|--------------------------------------------------|--------------------|--------------------------------------------------|--------------------|
--19-20-19-17-19-20-19-17-19-20-19-17-19-20-19-17-|--19~---------------|--------------------------------------------------|--------------------|--------------------------------------------------|--------------------|--------------------------------------------------|--------------------|--------------------------------------------------|--------------------|--------------------------------------------------|--------------------|
WHOLE PLAYING ORDER INTRO RIFF RIFF BEFORE VERSE VERSE PRE CHORUS VERSE PRE CHORUS CHORUS RIFF BEFORE VERSE GUITAR SOLO VERSE PRE CHORUS CHORUS RIFF BEFORE VERSE INTRO RIFF | / slide up | \ slide down | h hammer-on | p pull-off | ~ vibrato | + harmonic | . Mute note | X SCRACH ===============================================
Please rate this tab:
x1.0