A tab with lyrics by Vulgaires Machins - Easy chords and tabs for guitar

Vulgaires Machins – A tab

 >------------------Tab: Guitare 1---------------------<
 
Play the intro whit finger picking (Guitare 1).
 
Part A (p-m-i-m) |------------------------|------------------------||----0-----0-----0-----0-|----0-----0-----0-----0-||-------0-----------0----|-------0-----------0----||-2-----------2----------|-2-----------2----------||------------------------|------------------------||------------------------|------------------------|
|------------------------|------------------------||----1-----1-----1-----1-|----1-----1-----1-----1-||-------0-----------0----|-------0-----------0----||-2-----------2----------|-2-----------2----------||------------------------|------------------------||------------------------|------------------------|
|------------------------|------------------------||----0-----0-----0-----0-|----0-----0-----0-----0-||-------0-----------0----|-------0-----------0----||-0-----------0----------|-0-----------0----------||------------------------|------------------------||------------------------|------------------------|
|------------------------|------------------------||----0-----0-----0-----0-|----0-----0-----0-----0-||------------------------|------------------------||-------4-----------4----|-------4-----------4----||-6-----------6----------|-6-----------6----------||------------------------|------------------------|
Part B |-0-----0-----0-----0----|-0-----0-----0-----0----||----5-----5-----5-----5-|----5-----5-----5-----5-||------------------------|------------------------||------------------------|------------------------||------------------------|------------------------||------------------------|------------------------|
|-0-----0-----0-----0----|-0-----0-----0-----0----||----5-----5-----5-----5-|----5-----5-----5-----5-||------------------------|------------------------||------------------------|------------------------||------------------------|------------------------||------------------------|------------------------|
|-0-----0-----0-----0----|-0-----0-----0-----0----||----5-----5-----5-----5-|----5-----5-----5-----5-||------------------------|------------------------||------------------------|------------------------||------------------------|------------------------||------------------------|------------------------|
|-0-----0-----0-----0----|-0-----0-----0-----0----||----5-----5-----5-----5-|----5-----5-----5-----5-||------------------------|------------------------||------------------------|------------------------||------------------------|------------------------||------------------------|------------------------|
|-3-----3-----3-----3----|-3-----3-----3-----3----||----3-----3-----3-----3-|----3-----3-----3-----3-||------------------------|------------------------||------------------------|------------------------||------------------------|------------------------||------------------------|------------------------|
|-2-----2-----2-----2----|-2-----2-----2-----2----||----4-----4-----4-----4-|----4-----4-----4-----4-||------------------------|------------------------||------------------------|------------------------||------------------------|------------------------||------------------------|------------------------|
Part C (Distortion) |-0--0--0--0--0--0--0--0-|-0--0--0--0--0--0--0--0-||-0--0--0--0--0--0--0--0-|-1--1--1--1--1--1--1--1-||-0--0--0--0--0--0--0--0-|-0--0--0--0--0--0--0--0-||-2--2--2--2--2--2--2--2-|-2--2--2--2--2--2--2--2-||-2--2--2--2--2--2--2--2-|-3--3--3--3--3--3--3--3-||-0--0--0--0--0--0--0--0-|------------------------|
|-3--3--3--3--3--3--3--3-|-0--0--0--0--0--0--0--0-||-0--0--0--0--0--0--0--0-|-0--0--0--0--0--0--0--0-||-0--0--0--0--0--0--0--0-|-4--4--4--4--4--4--4--4-||-0--0--0--0--0--0--0--0-|-4--4--4--4--4--4--4--4-||-2--2--2--2--2--2--2--2-|-2--2--2--2--2--2--2--2-||-3--3--3--3--3--3--3--3-|-0--0--0--0--0--0--0--0-|
Part D (distortion) (each chords 16 times)|------------------------|------------------------||------------------------|------------------------||----------5-------------|-------------4----------||-2--------5-------------|-5-----------4----------||-2--------3-------------|-5-----------2----------||-0----------------------|-3----------------------|
Part E |-0----------------------||-0----------------------||-9----------------------||-9----------------------||-7----------------------||------------------------|
Structure Guit 1:Part A - 6 x Part C - 1 x Part E - 1 xPart B - 1 x Part E - 1 xPart A - 2 x Part A - 3 xPart B - 1 x part D - 2 x>------------------Tab: Guitar 2---------------------<|------------------------|---|------------------------||------------------------|---|-8~---------------------||------------------------|---|------------------------||-2~---------------------|---|------------------------||------------------------|---|------------------------||------------------------|---|------------------------|
|-7~---------------------|---|------------------------||------------------------|---|------------------------||------------------------|---|------------------------||------------------------|---|-2~---------------------||------------------------|---|----------------3~------||------------------------|---|------------------------|
|------------------------|------------------------||------------------------|------------------------||------------------------|------------------------||------------------------|------------------------||-------------2~---------|------------------------||-3~---------------------|-2~----0~---------------|
|------------------------|------------------------||------------------------|------------------------||------------------------|------------------------||------------------------|------------------------||-3~---------------------|-2~----------6~--7~-----||-------------3~---------|------------------------|
|------------------------|------------------------||------------------------|------------------------||------------------------|------------------------||------------------------|------------------------||-5~-3~------------------|-------------2~---------||------------------------|-3~---------------------|
--> Part B guit 1|------------------------|------------------------||------------------------|------------------------||------------------------|------------------------||-2~---------------------|------------------------||----------------3~------|-------------2~---------||------------------------|-3~---------------------|
......Distortion...... |------------------------|-------------------7~---||------------------------|-8~-------------8-------||------------------------|------------------------||-2----------------------|------------------------||------------------------|------------------------||------------------------|------------------------|
End: "guitar 1 play part D" -->guitar 2 play this (distortion) (2x)|------------------------|------------------------||----0-----0-----0-----0-|----0-----0-----0-----0-||-------0-----------0----|-------0-----------0----||-2-----------2----------|-2-----------2----------||------------------------|------------------------||------------------------|------------------------|
|------------------------|------------------------||----1-----1-----1-----1-|----1-----1-----1-----1-||-------0-----------0----|-------0-----------0----||-2-----------2----------|-2-----------2----------||------------------------|------------------------||------------------------|------------------------|
|------------------------|------------------------||----0-----0-----0-----0-|----0-----0-----0-----0-||-------0-----------0----|-------0-----------0----||-0-----------0----------|-0-----------0----------||------------------------|------------------------||------------------------|------------------------|
|------------------------|------------------------||----0-----0-----0-----0-|----0-----0-----0-----0-||------------------------|------------------------||-------4-----------4----|-------4-----------4----||-6-----------6----------|-6-----------6----------||------------------------|------------------------|
Please rate this tab:
x1.0