Wagner Rick - Ride Of The Valkyries tab

the other version of this is pretty good but its a little bit off. this is how i 
it.

intro w/ violins

-------------------------------------------------|---------------------7----7---7-10-----------7~--|---------7-----7---7----7---7----------7-7-7-----|---9---9----9----9------------------7------------|-9---9-------------------------------------------|-------------------------------------------------|
----------------------------------------------9~--|---------------------7----7---7-10--7-10-7-10-----|---------7-----7---7----7---7---------------------|---9---9----9----9--------------------------------|-9---9--------------------------------------------|--------------------------------------------------|
---------------------------------------------6~--|---------------------7----7---7-10-----7---7-----|---------7-----7---7----7---7-------6----6-------|---9---9----9----9-------------------------------|-9---9-------------------------------------------|-------------------------------------------------|
------------------------------------------------|------------------------------------------------|----------4-----------4-----------5---4-4-4-7~--|-4--5---5----4--5---5----4--5---5---4-----------|------7-----------7-----------7-----------------|------------------------------------------------|
------------------------------------------------|--------------------------------------------4~--|----------4-----------4-----------6---4-4-4-----|-4--5---5----4--5---5----4--5---5---4-----------|------7-----------7-----------7-----------------|------------------------------------------------|
bridge w/ violins & cellos
-------------------------------------------------|---------------------7----7---7-10-----------7~--|---------7-----7---7----7---7----------7-7-7-----|---9---9----9----9------------------7------------|-9---9-------------------------------------------|-------------------------------------------------|
----------------------------------------------9~--|---------------------7----7---7-10--7-10-7-10-----|---------7-----7---7----7---7---------------------|---9---9----9----9--------------------------------|-9---9--------------------------------------------|--------------------------------------------------|
---------------------------------------------6~--|---------------------7----7---7-10-----7---7-----|---------7-----7---7----7---7-------6----6-------|---9---9----9----9-------------------------------|-9---9-------------------------------------------|-------------------------------------------------|
replay till finish
Tap to rate this tab
 
# A B C D E F G H I J K L M N O P Q R S T U V W X Y Z