War - Spill The Wine tab

I decided to tab this out today

Spill the wine -Organ shit

Most of song-----3----3---3----3-|-2--2-3---2--2-3---|--
Chorus F E F E F E F E C Spill The Wine - Flute Tab
------------------|-8-11-13-11-13----|------------------|------------------|------------------|------------------|
----------------------------|-11-13-16-13-20-20-18-16-13-|----------------------------|----------------------------|----------------------------|----------------------------|
----------11-18-20-|-11-13-13----------|-------------------|-------------------|-------------------|-------------------|
-18-20-22-20-|-------------|-------------|-------------|-------------|-------------|
-19-20-15-13-15-13-11-13-|-------------------------|-------------------------|-------------------------|-------------------------|-------------------------|
-13/15-11-8-13/15-11-8-|-----------------------|-----------------------|-----------------------|-----------------------|-----------------------|
-22-20-18-15-13-12-|-------------------|-------------------|-------------------|-------------------|-------------------|
-14/15-11-8---10-8-6-8-|-----------------------|-----------------------|-----------------------|-----------------------|-----------------------|
Then Chorus Next Verse Chorus
Fire (sliding)-15/19/22\18\15/20--------------------|-------------------|-------------------|-------------------|-------------------|
-13-11-8-11-|------------|------------|------------|------------|------------|
-------------------------|-13-16-20-20-18-16-13/16-|-------------------------|-------------------------|-------------------------|-------------------------|
Bendy-----------------------------------|-----------------------------------|-11-13-14-14-14-13-11-13---11-11-7-|-----------------------------------|-----------------------------------|-----------------------------------|
chorus
-------------------------|-13-16-20-20-18-16-13/16-|-------------------------|-------------------------|-------------------------|-------------------------|
High Free style Fluting
Tap to rate this tab
 
# A B C D E F G H I J K L M N O P Q R S T U V W X Y Z