Reach tab with lyrics by Warren Barfield - Easy chords and tabs for guitar

Warren Barfield – Reach tab

this is 100% hehehehe
bhala na kau ang humusga

band:eye set to kill
song:reach
tab by:raymond rosalejos

madali lng nmn e2 ehh


add nyo aq,.......
e2 e-mail add q..

sandatahang_screamo@yahoo.com
hopesdielast_mond@yahoo.com.ph

ROCK en Roll
wahahahahahha ;)

============================================================================
============================================================================
============================================================================

INTRO (guitar 1)|---------------------------------------------------||---------------------------------------------------||---------------------------------------------------||-9~~~~~--------------------------------------------||-9~~~~~--------------------------------------------||-9~~~~~--------------------------------------------|
(guitar 2)|--------------------17-14--------------------------||-15-0-17-0-14h15----------17-15-14-14h15-----------||-----------------14----------------------14-16-----||---------------------------------------------------||---------------------------------------------------||---------------------------------------------------|
(guitar 1)|--------------------------------------------------||--------------------------------------------------||--------------------------------------------------||-5~~~~~-------------------------------------------||-5~~~~~-------------------------------------------||-5~~~~~-------------------------------------------|
(guitar 2)|--------------------17-14-------------------------||-15-0-17-0-14h15----------17-15-14-14h15----------||-----------------14----------------------14-------||--------------------------------------------------||--------------------------------------------------||--------------------------------------------------|
(guitar 1)|--------------------------------------------------||--------------------------------------------------||--------------------------------------------------||-0~~~~~-------------------------------------------||-0~~~~~-------------------------------------------||-0~~~~~-------------------------------------------|
(guitar 2)|--------------------------------------------------||-15\19-0-15-0-17-0-14h15-0-15h17-0-14h15----------||----------------------------------------14--------||--------------------------------------------------||--------------------------------------------------||--------------------------------------------------|
(guitar 1)|--------------------------------------------------||--------------------------------------------------||--------------------------------------------------||-77x77x77x77--11----------------------------------||-77x77x77x77--10----------------------------------||-77x77x77x77---8----------------------------------|
(guitar 2)|--------------------------------------------------||-15\19-0-15-0-17-0-14h15-0-15h17-0-14h15h14-12~~--||--------------------------------------------------||--------------------------------------------------||--------------------------------------------------||--------------------------------------------------|
============================================================================= CHORUS PART 1(guitar 1)|---------------------------------------------------||---------------------------------------------------||---------------------------------------------------||-9999999999999999--5555555555555555----------------||-9999999999999999--5555555555555555----------------||-9999999999999999--5555555555555555----------------|
|---------------------------------------------------||---------------------------------------------------||---------------------------------------------------||-0000000000000000--777777771111111111111111--------||-0000000000000000--777777771010101010101010--------||-0000000000000000--77777777-8-8-8-8-8-8-8-8--------|
(gutiar 2)|---------------------------------------------------||---------------------------------------------------||---------------------------------------------------||-9999999999999999--5555555555555555----------------||-9999999999999999--5555555555555555----------------||-9999999999999999--5555555555555555----------------|
|---------------------------------------------------||---------------------------------------------------||-12-12-12-12--11-11-11-11-9-9-9-9------------------||--x--x--x--x--x--x--x--x--x-x-x-x------------------||-10-10-10-10--9--9--9--9--7-7-7-7------------------||---------------------------------------------------|
|---------------------------------------------------||---------------------------------------------------||-7-7-7-7--6-6-6-6-6-6-6-6--3-3-3-3-3-3-3-3---------||-x-x-x-x--x-x-x-x-x-x-x-x--x-x-x-x-x-x-x-x---------||-5-5-5-5--4-4-4-4-4-4-4-4--1-1-1-1-1-1-1-1---------||---------------------------------------------------|
CHORUS PART 2 (guitar 1)|---------------------------------------------------||---------------------------------------------------||---------------------------------------------------||-9999999999999999--5555555555555555----------------||-9999999999999999--5555555555555555----------------||-9999999999999999--5555555555555555----------------|
|---------------------------------------------------||---------------------------------------------------||---------------------------------------------------||-0000000000000000--777777771111111111111111--------||-0000000000000000--777777771010101010101010--------||-0000000000000000--77777777-8-8-8-8-8-8-8-8--------|
(guitar 2)|--------------------17-14--------------------------||-15-0-17-0-14h15----------17-15-14-14h15-----------||-----------------14----------------------14-16-----||---------------------------------------------------||---------------------------------------------------||---------------------------------------------------|
|--------------------17-14--------------------------||-15-0-17-0-14h15----------17-15-14-14h15-----------||-----------------14----------------------14--------||---------------------------------------------------||---------------------------------------------------||---------------------------------------------------|
|---------------------------------------------------||-15\19-0-15-0-17-0-14h15-0-15h17-0-14h15-----------||----------------------------------------14---------||---------------------------------------------------||---------------------------------------------------||---------------------------------------------------|
|---------------------------------------------------||-15\19-0-15-0-17-0-14h15-0-15h17-0-14h15h14-12~~~--||---------------------------------------------------||---------------------------------------------------||---------------------------------------------------||---------------------------------------------------|
========================================================================================================================================================== VERSE (guitar 1)|---------------------------------------------------||---------------------------------------------------||---------------------------------------------------||-55555x5x5x5--------55555x5x5x5--------------------||-55555x5x5x5-7h9p5--55555x5x5x5-7h9p5--------------||-55555x5x5x5--------55555x5x5x5--------------------|
2x itong part na e2|---------------------7*----------------------------||-------------7*-7*---------------------7*-7*-------||-------------------7*-----------------------7*-----||-99999x9x9x9--------------99999x9x9x9----------7*--||-99999x9x9x9--------------99999x9x9x9--------------||-99999x9x9x9--------------99999x9x9x9--------------|
(guitar 2)|---------------------------------------------------||---------------------------------------------------||---------------------------------------------------||-55555x5x5x5--------55555x5x5x5--------------------||-55555x5x5x5--------55555x5x5x5--------------------||-55555x5x5x5--------55555x5x5x5--------------------|
|---------------------------------------------------||---------------------------------------------------||---------------------------------------------------||-99999x9x9x9--------99999x9x9x9--------------------||-99999x9x9x9--------99999x9x9x9--------------------||-99999x9x9x9--------99999x9x9x9--------------------|
============================================================================PRE-CHORUS(guitar 1)|---------------------------------------------------||---------------------------------------------------||---------------------------------------------------||-55555x5x5x5--------55555x5x5x5--------------------||-55555x5x5x5--------55555x5x5x5--------------------||-55555x5x5x5--------55555x5x5x5--------------------|
|---------------------------------------------------||---------------------------------------------------||-11h4-7\6----11--7h6-4---7\6-----------------------|(2x)|----------11-----------7---------------------------||---------------------------------------------------||---------------------------------------------------|
|---------------------7*----------------------------||-------------7*-7*---------------------7*-7*-------||-------------------7*-----------------------7*-----||-99999x9x9x9--------------99999x9x9x9----------7*--||-99999x9x9x9--------------99999x9x9x9--------------||-99999x9x9x9--------------99999x9x9x9--------------|
|---------------------------------------------------||---------------------------------------------------||-11h4-7\6----11--7h6-4---7\6-----------------------|(2x)|----------11-----------7---------------------------||---------------------------------------------------||---------------------------------------------------|
|---------------------------------------------------||---------------------------------------------------||---------------------------------------------------||-55555x5x5x5---55555x5x5x5--77777------------------||-55555x5x5x5---55555x5x5x5--77777------------------||-55555x5x5x5---55555x5x5x5--77777------------------|
|---------------------------------------------------||---------------------------------------------------||-11-7\6-0h6-11-7\6-\2-\7\6-------------------------|(2x)|---------------------------------------------------||---------------------------------------------------||---------------------------------------------------|
BACK TO CHORUS VERSE PRE-CHORUS CHORUS THEN ============================================================================= ============================================================================= BRIDGE (guitar 1)
|---------------------------------------------------||---------------------------------------------------||---------------------------------------------------||-555x5x5----------555x5x5--------------------------||-555x5x5----------555x5x5--------------------------||-555x5x5----------555x5x5--------------------------|
|---------------------------------------------------||---------------------------------------------------||------------------------11~~~----------------------||-999x9x9----------999x9x11~~~----------------------||-999x9x9----------999x9x9~~~~----------------------||-999x9x9----------999x9x9~~~~----------------------|
|---------------------------------------------------||---------------------------------------------------||---------------------------------------------------||-555x5x5----------555x5x5x5------------------------||-555x5x5----------555x5x5x5------------------------||-555x5x5----------555x5x5x5------------------------|
|---------------------------------------------------||---------------------------------------------------||---------------------------------------------------||-9~~~~~--------------------------------------------||-9~~~~~--------------------------------------------||-9~~~~~--------------------------------------------|
==========================================================================================================================================================INTERLUDE PART 1(KEYBOARD)|---------------------------------------------------||---------------------------------------------------||---------------------------------------------------||---------------------------------------------------||---------------------------------------------------||---------------------------------------------------|
==========================================================================================================================================================INTERLUDE PART 2(guitar 1)palm mute|---------------------------------------------------||---------------------------------------------------||---------------------------------------------------||-9999999999999999----0000000000000000--------------||-9999999999999999----0000000000000000--------------||-9999999999999999----0000000000000000--------------|
|---------------------------------------------------||---------------------------------------------------||---------------------------------------------------||-555555555555555----77777777777777777--------------||-555555555555555----77777777777777777--------------||-555555555555555----77777777777777777--------------|
(guitar 1)|---------------------------------------------------||---------------------------------------------------||---------------------------------------------------||-9999999999999999----0000000000000000--------------||-9999999999999999----0000000000000000--------------||-9999999999999999----0000000000000000--------------|
|---------------------------------------------------||---------------------------------------------------||-11-(4x)-------------------------------------------||--------12-(4x)-11-(4x)-9-(4x)-7-(4)---------------|(2x)|---------------------------------------------------||---------------------------------------------------|
(guitar 1)|---------------------------------------------------||---------------------------------------------------||---------------------------------------------------||-555555555555555----77777777777777777--------------||-555555555555555----77777777777777777--------------||-555555555555555----77777777777777777--------------|
|---------------------------------------------------||---------------------------------------------------|(2x)|-7-(4x)-9-(4x)-------------------------------------||---------------9-(4x)-11-(4x)-12-(4x)--------------||---------------------------------------------------||---------------------------------------------------|
(guitar 1)|---------------------------------------------------||---------------------------------------------------||---------------------------------------------------||-9999999999999999----0000000000000000--------------||-9999999999999999----0000000000000000--------------||-9999999999999999----0000000000000000--------------|
(guitar 2)|---------------------------------------------------||---------------------------------------------------||-11-(4x)-------------------------------------------||--------12-(4x)-11-(4x)-9-(4x)-7-(4)---------------|(2x)|---------------------------------------------------||---------------------------------------------------|
(guitar 1)|---------------------------------------------------||---------------------------------------------------||---------------------------------------------------||-555555555555555----77777777777777777--------------||-555555555555555----77777777777777777--------------||-555555555555555----77777777777777777--------------|
(guitar 2)|---------------------------------------------------||---------------------------------------------------|(2x)|-7-(4x)-9-(4x)-------------------------------------||---------------9-(4x)-11-(4x)-12-(4x)--------------||---------------------------------------------------||---------------------------------------------------|
then.............==========================================================================================================================================================CHORUS-OUTROGUITAR 1 AND 2|---------------------------------------------------||---------------------------------------------------||---------------------------------------------------||-9999999999999999----0000000000000000--------------||-9999999999999999----0000000000000000--------------||-9999999999999999----0000000000000000--------------|
1x|---------------------------------------------------||---------------------------------------------------||---------------------------------------------------||-555555555555555----77777777777777777--------------||-555555555555555----77777777777777777--------------||-555555555555555----77777777777777777--------------|
(guitar 1)|---------------------------------------------------||---------------------------------------------------||---------------------------------------------------||-9999999999999999----0000000000000000--------------||-9999999999999999----0000000000000000--------------||-9999999999999999----0000000000000000--------------|
(guitar 2)|--------------------17-14--------------------------||-15-0-17-0-14h15----------17-15-14-14h15-----------||-----------------14----------------------14-16-----||---------------------------------------------------||---------------------------------------------------||---------------------------------------------------|
|--------------------17-14-------------------------||-15-0-17-0-14h15----------17-15-14-14h15----------||-----------------14----------------------14-------||--------------------------------------------------||--------------------------------------------------||--------------------------------------------------|
(guitar 1)|---------------------------------------------------||---------------------------------------------------||---------------------------------------------------||-555555555555555----77777777777777777--------------||-555555555555555----77777777777777777--------------||-555555555555555----77777777777777777--------------|
(guitar 2)|--------------------------------------------------||-15\19-0-15-0-17-0-14h15-0-15h17-0-14h15----------||----------------------------------------14--------||--------------------------------------------------||--------------------------------------------------||--------------------------------------------------|
|---------------------------------------------------||-15\19-0-15-0-17-0-14h15-0-15h17-0-14h15h14--------||---------------------------------------------------||---------------------------------------------------||---------------------------------------------------||---------------------------------------------------|
(guitar 1)|---------------------------------------------------||---------------------------------------------------||---------------------------------------------------||-5~~~~~~~~~~~~~------------------------------------||-5~~~~~~~~~~~~~------------------------------------||-5~~~~~~~~~~~~~------------------------------------|
|---------------------------------------------------||-12~~~~~~~~~~~~~~~---------------------------------||---------------------------------------------------||---------------------------------------------------||---------------------------------------------------||---------------------------------------------------|
----------END---------- ============================================================================= =============================================================================
Please rate this tab:
x1.0