Ween - Dont Shit Where You Eat tab

#----------------------------------PLEASE NOTE---------------------------------#
#This file is the author's own work and represents their interpretation of the #
#song. You may only use this file for private study, scholarship, or research. #
#------------------------------------------------------------------------------##
From: sydb@wam.umd.edu (Sydb)
Subject: TAB-"Don't Shit where you Eat"-Ween

Transcribbled by Ken Gorski (sydb@wam.umd.edu)

  As always, listen to the album to get the right timing, this 
transcription isÕnt very accurate in regards to rhythm.
 If you find a obvious mistake 
someplace, please e-mail me. This song sounds best if you donÕt 
use a pick. Change this post to Courier Font to make it readable, 
if nessisary.

Key:
7b8- bend up to 2nd note
8b7- release bend to 2nd note
/- slide up
\- slide down
2h3- Hammer on 2nd note
3p2- pull off to 2nd note

The Verses: G C Dm G-------------------------1---------------3-----------------------------------3---------------0------------------------------------2---------------0----------------------------------------------------0------------0-3-0-3-------------------------------2-----------3---------------------------------------3----------
Repeat above
G C Dm F C E (this E is strummed backwards)-----------------1--1--0-----------------------------------------2--1--1--0---------------------------------------3--2--0--1----------------------------------------3--2--2------0-----------------0-3-0-3-------------3--2---------3-2-----------3------------------------0-------------------
Riff A(A) Am7 ( ) C-----------0------0---------------------------------------1---1--1---1----1----1---1--1-1-----------2-----0---0--0---2----2----2---2--0-0---------2-----------2------3p2--3p2--3p2-3--2-2-------0-------------------------------------3-3------------------------------------------------------
The Solo:
-20\--------------------------------------------------------------------------------------------------------------------------------------------------------------7-5---------------------------------3---(5)/7--------------------------------1--3---/5-----------------------------------
-----------------------------------------------------------------------------------------------------8b7p5----5-7-5--7b8-7b8p5--7-5-7b8-8-8b7------------------7----------------------------------7-5-7---5----------------------------------------------------------------------------------------------------
----------------------------20\----------------------------------------------------------------------7b8b7-5--------7b8b7-5/------------------------------------5-7-5-----------------------------------------------------------------------------------------------------------------------------------------
-10-12---9--10-12-13-15-13-10---20-19-17-----------12-13---10-12-13-15-17-15-12-----------------------------------------------------------------------------------------------------------------------------------------------------------------------------------------------------------------------------
-15-12-17-15-12--12h13----10h12-----------------------------------------------15--------13---13h15----------------------------------------------------------14-14h16-12--------------------------------------------------------------------------------------------------------------------------------------------------------------------------
--------------------------------------------------------------------------------13-13----------------12h14-10---10p9-10p9-10p9-10---------------------------------------------------------------------------------------------------------------------------------------------------------------------------
-13-13p12-13p12-13p12-13/20--20---1-1p0-1p0-1p0-------------------------------------1-1---1---1-------------------------------------------------------------------------------------------------------------------------------------------------------------------------------------------------------------
-0--0--------------------3--------------------------- -1--1------------------------------------------------0--0------------------------------------------------2--2------0----------------------------------------- -3--3------2----------------------------------------------------3---------------------------------------
Then repeat the verses. For Riff A: Make a Am chord as usual and use your pinky finger to hold down the 3rd fret on the 4th string and pull off repeatedly. Added Bonus: Benous Tardes Amego (uh, that mexican Ween song from the same album) The chords: Am G Am Am G Am Am G Dm Am G Am The solo is very simple, but if you REALLY need it. Mail me and iÕll post it. Q: does anybody know how to do that "Noise Solo" from "Voodoo Lady"? I guess they use some kind of Dist./Fuzz box, but what kind?
Tap to rate this tab
 
# A B C D E F G H I J K L M N O P Q R S T U V W X Y Z