Lemonade tab with lyrics by Wheatus - Easy chords and tabs for guitar

Wheatus – Lemonade tab

Lemonade by Wheatus


 VERSE

 |
-|----------------------------------------|-|----------------------------------------|-|----------------------------------------|-|--9-9-9-9-11-11-11-11-7-7-7-7-9-9-9-9---| X6-|--9-9-9-9-11-11-11-11-7-7-7-7-9-9-9-9---|-|--7-7-7-7-9--9--9--9--5-5-5-5-7-7-7-7---|
| VERSE OUTRO |
-|-----------------------------------------------------------------------------|-|-----------------------------------------------------------------------------|-|-----------------------------------------------------------------------------|-|--9-9-9-9-9-9-9-9-9-7-7-7-7-7-7-7-7-11-11-11-11-11-11-11-11-9-9-9-9-9-9-9-9--| X1-|--9-9-9-9-9-9-9-9-9-7-7-7-7-7-7-7-7-11-11-11-11-11-11-11-11-9-9-9-9-9-9-9-9--|-|--7-7-7-7-7-7-7-7-7-5-5-5-5-5-5-5-5-9--9--9--9--9--9--9--9--7-7-7-7-7-7-7-7--|
| CHORUS |
-|-------------------------------------------------|-|-------------------------------------------------|-|-------------------------------------------------|-|--11-11-9-9-7-7-7-7-7-7-9-9-11-11-7-7-7-7-7-7-9--| x2-|--11-11-9-9-7-7-7-7-7-7-9-9-11-11-7-7-7-7-7-7-9--|-|--9--9--7-7-5-5-5-5-5-5-7-7-9--9--5-5-5-5-5-5-7--|
| VERSE |
-|----------------------------------------|-|----------------------------------------|-|----------------------------------------|-|--9-9-9-9-11-11-11-11-7-7-7-7-9-9-9-9---| X6-|--9-9-9-9-11-11-11-11-7-7-7-7-9-9-9-9---|-|--7-7-7-7-9--9--9--9--5-5-5-5-7-7-7-7---|
| VERSE OUTRO |
-|-----------------------------------------------------------------------------|-|-----------------------------------------------------------------------------|-|-----------------------------------------------------------------------------|-|--9-9-9-9-9-9-9-9-9-7-7-7-7-7-7-7-7-11-11-11-11-11-11-11-11-9-9-9-9-9-9-9-9--| X1-|--9-9-9-9-9-9-9-9-9-7-7-7-7-7-7-7-7-11-11-11-11-11-11-11-11-9-9-9-9-9-9-9-9--|-|--7-7-7-7-7-7-7-7-7-5-5-5-5-5-5-5-5-9--9--9--9--9--9--9--9--7-7-7-7-7-7-7-7--|
| CHORUS |
-|-------------------------------------------------|-|-------------------------------------------------|-|-------------------------------------------------|-|--11-11-9-9-7-7-7-7-7-7-9-9-11-11-7-7-7-7-7-7-9--|-|--11-11-9-9-7-7-7-7-7-7-9-9-11-11-7-7-7-7-7-7-9--|-|--9--9--7-7-5-5-5-5-5-5-7-7-9--9--5-5-5-5-5-5-7--|
| |
-|-----------------------------------------------------------------|-|-----------------------------------------------------------------|-|-----------------------------------------------------------------|-|--11-11-9-9-7-7-7-7-7-7-9-9-11-11-7-7-7-7-7-7-9-9-9-9-9-9-9-9-9--|-|--11-11-9-9-7-7-7-7-7-7-9-9-11-11-7-7-7-7-7-7-9-9-9-9-9-9-9-9-9--|-|--9--9--7-7-5-5-5-5-5-5-7-7-9--9--5-5-5-5-5-5-7-7-7-7-7-7-7-7-7--|
| During the 'what should I care about a number, what should it matter to me?' part |
-|---------------------------------|-|---------------------------------|-|---------------------------------|-|--11-11-9-9-7-7-9-9-11-11-9-9-7--| x2-|--11-11-9-9-7-7-9-9-11-11-9-9-7--|-|--9--9--7-7-5-5-7-7-9--9--7-7-5--|
| |
-|-------------------------------------------------------------------------------|-|-------------------------------------------------------------------------------|-|-------------------------------------------------------------------------------|-|--7-7-7-7-7-7-7-7-7-7-7-7-7-7-7-7-7-7-7-9-9-9-9-9-9-9-9-9-9-9-9-9-9-9-9-9-9-9--|-|--7-7-7-7-7-7-7-7-7-7-7-7-7-7-7-7-7-7-7-9-9-9-9-9-9-9-9-9-9-9-9-9-9-9-9-9-9-9--|-|--5-5-5-5-5-5-5-5-5-5-5-5-5-5-5-5-5-5-5-7-7-7-7-7-7-7-7-7-7-7-7-7-7-7-7-7-7-7--|
| Then during the Harmonica (with Phil) or Keyboard (With Shannon) solo |
-|-------------------------------------------------|-|-------------------------------------------------|-|-------------------------------------------------|-|--11-11-9-9-7-7-7-7-7-7-9-9-11-11-7-7-7-7-7-7-9--| x4-|--11-11-9-9-7-7-7-7-7-7-9-9-11-11-7-7-7-7-7-7-9--|-|--9--9--7-7-5-5-5-5-5-5-7-7-9--9--5-5-5-5-5-5-7--|
| then when the intro is playing.... |
-|----------------------------------------|-|----------------------------------------|-|----------------------------------------|-|--9-9-9-9-11-11-11-11-7-7-7-7-9-9-9-9---| X12-|--9-9-9-9-11-11-11-11-7-7-7-7-9-9-9-9---|-|--7-7-7-7-9--9--9--9--5-5-5-5-7-7-7-7---|
| then the outro to the song |
-|---------------------------------|-|---------------------------------|-|---------------------------------|-|--9-7-9-7-9-11-9-7-9-7-9-11-9-7--|-|--9-7-9-7-9-11-9-7-9-7-9-11-9-7--|-|--7-5-7-5-7-9--7-5-7-5-7-9--7-5--|
Please rate this tab:
x1.0