White Lion - Little Fighter tab

White Lion
Little Fighter
Tabbed by
Julian Loor Maruri
1972 Plymouth Fury III
Guayaquil - Ecuador

The last tab that I published before is in 1 less tone..
Now this the perfect and complete tab with the guitar tuned in E and
the song in the original tone..
ENJOY IT!

Vito Bratta is 1 of the 10 Best Guitarist of the World

Intro

|-----------|-----------------------|---------------------||-----------|-----------------4-----|---------------------||-----4---3-|-(3)-------------4---6-|-(6)-----------4---4-||-----4---4-|-(4)--------2h=4-----4-|-(4)-------2h6-----4-||-----------|-----------------------|---------------------||-------2---|--2--2-2-2-(2)-----2---|--2--2-2-2-2-----2---|
|--------------2-----|-------------------|-----------------------||----------------2h4-|---6S4----4--------|-----------------4-----||---3----------------|---6S4----4------3-|-(3)-------------4---6-||---4----4-(4)-------|-------------------|------------2--4-----4-||--------4-(4)-------|-4p==2-2-(2)-------|-----------------------||-2---2--------------|-------------2-----|--2--2-2-2-(2)---2-2---|
|---------------------|--------------2-----|---------------------||---------------------|----------------2h4-|---6s4----4----------||-(6)-----------4---4-|---3--------------4-|---6s4----4------2h3-||-(4)-------2h6-----4-|---4----4-(4)-------|---------------------||---------------------|--------4-(4)-------|-4p==2-2-(2)---------||--2--2-2-2-2-----2---|-2---2--------------|-------------2-----2-|
|-----------------------|-----------------------|-------------2-----||-----------------------|-----------------------|---------------2---||-(3)-------------8---6-|-(6)-------------4---4-|---3---------------||------------2h=9-6---4-|-(4)--------4h=6-----4-|---4---4-(4)-------||-----------------------|-----------------------|-------4-(4)-------||--2--2-2-2-(2)---2-2-2-|--2--2-2-2-(2)---2-2-2-|-2-2-2-2--2--2-2-2-|
|----------7\-------|---------------------|---------------------||----9s7---7\-------|---------------------|---------------------||---10s8---8\-----3-|-(3)-----------8---6-|-(6)-----------4---4-||---11s9-9-9\-------|-----4---4-2h9-6---4-|-(4)-4---4-2h6-4---4-||-------------------|---------------------|---------------------||-2-------------2---|--2----2---2-----2-2-|--2----2---2-----2-2-|
Verse 1
|-------2------|----------||------------------|---------------------||-------2------|----------||------------------|---------------------||---3----------|----------||------------------|---------------------||---4----------|----------||--4---------------|---------------4-----||--------------|----------||--------4-----2---|---4---------4-------||-2---2--------|----------||----2-2---2-2---2-|-2---2-2-6b7-----6b7-|
|-----------------|---------------------|-----------------||-----------------|---------------------|-----------------||-----------------|---------------------|-----------------||-4---------------|---------------4-----|-4---------------||-------4-----2---|---4---------4-------|-------4-----2---||---2-2---2-2---2-|-2---2-2-6b7-----6b7-|---2-2---2-2---2-|
|---------------------|-------------------|------||---------------------|-------------------|------||---------------------|-------------------|------||---------------4-----|-4-------------4---|------||---4---------4-------|-------4-------2---|------||-2---2-2-6b7-----6b7-|---2-2---2-6b7-----|------|
|-----------------|---------------------|-----------------||-----------------|---------------------|-----------------||-----------------|---------------------|-----------------||-4---------------|---------------4-----|-4---------------||-------4-----2---|---4---------4-------|-------4-----2---||---2-2---2-2---2-|-2---2-2-6b7-----6b7-|---2-2---2-2---2-|
|-------------------|-----------------|-----------------||-------------------|-----------------|-----------------||-------------------|-8-----6-----4---|---3---------3---||---------------4---|-9-----8-----6---|---4-----4h6-----||---4---------4-----|-----------------|---------------2-||-2---2-2-6b7-----2-|---2-2---2-2---2-|-2---2-2---------|
|-------------7\--|-------------------|----------------||-------------7\--|-------6---7p6-----|----7----6---6s=||-4-----3---------|---------------6---|----8----6---6s=||-4-----4---------|-----6---6-------6-|-8-----6--------||---2-2---2-2-----|-6s8---------------|-6-----4---4----||-----------------|-------------------|----------------|
|-----------------|---------------|---------7-6-7-------||-4---4---5-4-----|----7s6---6--6s|=4-------------7-----||-4---4---4---4---|----8s6---6--6s|=4---6s8---------8---||-----------------|--------6------|---------------------||---2---2-------4s|=6------4------|---2---------------9-||-----------------|---------------|---------------------|
|-----------------|--------------------|-----------2-----||-----7s6---------|--------------------|---------------6-||-----8s6---6---6S|=4---4--------------|-4p3---3h4-------||---8-------6---6s|=4---4---6-4-6-4----|-----4---------6-||-6-------4---4---|---2---2---------2--|-----------------||-----------------|--------------------|-----------------|
Chorus
|-------------------|-------------------|------------------------||-(6)---------------|-------------4---6-|-(6)--------------6-----||-------------4---3-|---------3s4---4-6-|-(6)-----6----[6]-----8-||-(6)-6-6-6-6-4---4-|-----------------6-|-(6)-----6----------7-8-||-----4-4-4-4-------|-------------------|-----6h8--------------6-||---------------2---|-2-2-2-2-----------|------------------------|
|-------------------|-------------------|------------------------||-------------------|-------------4---6-|-(6)-----6\-------6-----||-------------------|-3-3-3-3-3s4---4-6-|-(6)-----6\---/6----6---||-------------------|-4-4-4-4---------6-|-(6)-----6\-----------8-||-------------------|-------------------|-----6s8--------------6-||-------------------|-------------------|------------------------|
|--------------------|-------2-(2)-------|-------------------||--------------7s6---|-6s4---2-(2)-------|-------------4---6-||-(8)---8---/8-----6-|-----4-------4---3-|---------3s4---4-6-||-(8)---8------------|-6s4---------4---4-|-----------------6-||-(6)-6--------------|-------------------|-------------------||--------------------|---------------2---|-2-2-2-2-----------|
|----------------------|--------2-(2)-------|-------------------||--------------7s9-----|--9s7---2-(2)-------|-------------4---6-||--------------8s10----|-10s8---------4-4---|---------3s4---4-6-||-(8)-8-8-8--8------11-|------9-------4-4---|-----------------6-||-(6)-6-6-6--6---------|--------------------|-------------------||----------------------|------------------6-|-6-6-6-6-----------|
|-------------------------|--------------------|-------0-(0)----||-(4)---------------4-----|--------------5s4---|-4s2---0-(0)----||-(4)-----4----2s=4-----6-|-(6)---6----6-----4-|-4s2-2----------||-(4)-----4-----------7-6-|-(6)---6-/6---------|----------------||-----4h6---------------4-|-(4)-4--------------|----------------||-------------------------|--------------------|----------------|
|-------------------------|--------------------|-------0-(0)----||-(4)---------------4-----|--------------5s7---|-7s5---0-(0)----||-(4)-----4\-----/4-------|--------------6s8---|-8s6------------||-(4)-----4\----------7-6-|-(6)-6-6--6-6-----9-|-----7----------||-----6-----------------4-|-(4)-4-4--4-4-------|----------------||-------------------------|--------------------|----------------|
Verse 2
|----------|-----------------|---------------------|------------------||----------|-----------------|---------------------|------------------||----------|-----------------|---------------------|------------------||----------|-4---------------|---------------4-----|-4----------------||----------|-------4-----2---|---4---------4-------|-------4-----2----||----------|---2-2---2-2---2-|-2---2-2-6b7-----6b7-|---2-2---2-2---2--|
|-------------------|-----------------|-----------------||-------------------|-----------------|-----------------||-------------------|-8-----6-----4---|---3---------3---||---------------4---|-9-----8-----6---|---4-----4h6-----||---4---------4-----|-----------------|---------------2-||-2---2-2-6b7-----2-|---2-2---2-2---2-|-2---2-2---------|
|-------------------|-----------------|-----------------||-------------7\----|-6---9---7p6-----|-----------------||-4-----6-----8\-/6-|---6---------6---|-11\-------------||-6-----8-----9\----|---------------6s|=11\-------------||---2-2---2-2-------|-------2-------4s|-=9\---4-----2---||-------------------|-----------------|---------2-2---2-|
|-----------------|------------------|-------------------||-----------------|------------------|-------------------||-----------------|------------------|-------------------||---------------4-|----8---6---4---3-|---------------4---||---4-------4-4---|-/9---8---6---4---|---4---------4-----||-2---2-2-6-----2-|------------------|-2---2-2-6b7-----2-|
|-----------------|-----------------|------------------||-----------------|-----------------|-7-----7----------||-8-----6-----4---|---3---------3---|-8-----6----------||-9-----8-----6---|---4-----4h6-----|-9-----8-----9\---||-----------------|---------------2-|---2-2---2-2-9\---||---2-2---2-2---2-|-2---2-2---------|------------------|
|-------------------|----------------|--------------------||-------6---7p6-----|----7s6---6---6s|=4---4-----5-4------||---------------6---|-8--------6---6-|-----4---------4----||-----6---6-----6-6-|-8------6---6---|---4---4h6----------||-6-8-------------4-|-6--------------|-----------------4s=||-------------------|----------------|--------------------|
|-------------------|---------------------------|------------------||------7s=6---6---6s|=4------12-11-12-11-----14s|=7---7p6---6---6s=||-------------------|-------------------11------|---8--------------||---8-(8)s6-6---6---|---4s13--------------11----|---------6---6----||-6-----------------|---------------------------|------------------||-------------------|---------------------------|------------------|
|-----------------------|-----------2----|-------------------|||-4---4-----5-----------|-----------2--6-|-(6)-6-6-6-6-------|||-------------------4---|-4p3---3h4----6-|-(6)-6-6-6-6-4---3-|||---4---4-6---4-6-4-----|-----4--------6-|-(6)-6-6-6-6-4---4-|||---------------------2-|--------------4-|-(4)-4-4-4-4-------|||-----------------------|----------------|-------------------||
Chorus
|--------------------|-----------------------|-----6--------------------||--------------4---6-|-(6)-------------6-----|-------7----------11-9----||-----------/4-----6-|-(6)---6----4s=6-----8-|-(8)---8----------11-10---||------------------6-|-(6)-6----6----------8-|-(8)---8--8S13-13------11-||----------------2-4-|-(4)---------------2-6-|-(6)----------------------||-2-2-2-2------------|-----------------------|--------------------------|
|--------------------|-----------------------|--------------------------||--------------4---6-|-(6)---6\--------6-----|------------------11s9----||---------3s=4---4-6-|-(6)---6\-----/6-----8-|-(8)---8/---------11s10---||------------------6-|-(6)---6\----------9-8-|-(8)-8-8/------13------11-||--------------------|---------------------6-|-(6)---6/-----------------||-6-6-6-6------------|-----------------------|--------------------------|
|--------2-(2)-------|-------------------|---------------------||--9s7---2-(2)-------|-------------4---6-|-(6)-----------6---7-||-10s8---8-(8)-------|---------3s4-----6-|-(6)---6----/6-----8-||------9-------9---8-|-----------------6-|-(6)-6----6--------8-||--------------9---9-|---------------2-4-|-(4)-------------9---||----------------2---|-2-2-2-2-----------|---------------------|
|--------2-(2)-------|-------------------|---------------------||--9s7---2-(2)-------|-------------4---6-|-(6)-----------6---7-||-10s8---------4-4-3-|-3-3-3-3-3s4---4-6-|-(6)---6-----6-----8-||------9-------4-4-4-|-4-4-4-4---------6-|-(6)-6---/6------9-8-||--------------------|-------------------|-------------------6-||--------------------|-------------------|---------------------|
|---------------------|-----------------|------------------|||-(7)---7-------7s6---|-6s4---4-----6s4-|---4-----6s4-4----|||-(8)---8---/8--------|-6s4---4-----6s4-|---4-----6s4-4----|||-(8)---8-----------9-|-----------------|------------------|||-----6---------------|-----2---2-2-----|-2---2-2-----2--2-|||---------------------|-----------------|------------------||
|-----------------------|-------------------|-------------------|||-(7)------------11s9---|--9s7---7------9s7-|---7------9s7-7\---|||-(8)-8-8\------11s10---|-10s8---8-----10s8-|---8-----10s8-8\---|||-(8)-8-8\------13s11---|-11s9-9-9-9-9-11s9-|-9-9-9-9-11s9-9\---|||-(6)-6-6\-----------13-|-------------------|-------------------|||-----------------------|-------------------|-------------------||
Interlude
|-------------------|--------------------||-------------------|--------------------||-----6---------6---|-------6---------6--||---6---------6-----|-----6---------6----||-4-----2-(2)-------|--------------------||-----------------6-|-(6)-----4-(4)------|
|-------------------|----------------------||-------------------|----------------------||-----6---------6---|-------6---------6----||---6---------6-----|-----6---------6---6--||-4-----2-(2)-------|----------------------||-----------------6-|-(6)-----4-(4)--------|
|-------------------|---------------------||-------------------|---------------------||-----8---------8---|-------8---------8---||---8---------8-----|-----8---------8---8-||-6-----------------|---------------------||-------7-(7)-----6-|-(6)-----4-(4)-------|
|-------------------|-------------------|||-------------------|-------------------|||-----8---------8---|-------8---------8-|||---8---------8-----|-----8---------8---|||-6-----------------|-------------------|||-------7-(7)-----6-|-(6)-----4-(4)-----||
Solo
|--------8---8h11p8-----|----------20b21-(20)-20p18h20----||------9------------9---|------------------------------17-||----8----------------8-|-20s17---------------------------||-10--------------------|-------18------------------------||-----------------------|---------------------------------||-----------------------|---------------------------------|
|---------------------|---------------------------------||---4---4-----------4-|---------------------------------||---------------------|-----------6----------5----------||-6---6---------------|--6--------6----------6--------9-||---------------------|-------------------------------7-||---------------------|---------------------------------|
|----------------------------------------||-(17)-19b20-(19)-16-17b18-(17)----16b17-||-------------------------------18-------||----------------------------------------||----------------------------------------||----------------------------------------|
|----------------------------------------||----------------------------------------||-------9--------------------------------||--(9)--9--------------------------------||--(7)---------7---7--7------7---7--7----||----------------------------------------|
|--------------------------------------||-(16)----14b15-(14)-12s=11h12p11------||------16-------------------------13s9-||--------------------------------------||--------------------------------------||--------------------------------------|
|--------------------------------------||--------------------------------------||-------9------------------------------||-------9--9------11--(11)----------11-||---7------7------9---(9)------------9-||--------------------------------------|
|---------------------------------16h18p16----||----------------13h14p13------------------18-||-8h10p8------------------15-13/--------------||--------11-10/-------------------------------||---------------------------------------------||---------------------------------------------|
|------------------------------------------||-4---4---4----4-----4-----4----4-----4----||-5---5---5----5-----5-----5----5-----5----||-6---6---6----6-----6-----6----6-----6----||------------------------------------------||------------------------------------------|
T T |---16--18--20--20b21-20-18p16----------|---------------------------||-----16--16--16---------------20-17h21-|-17tr21-------16tr19-------||-17------------------------------------|---------------------------||---------------------------------------|---------------------------||---------------------------------------|---------------------------||---------------------------------------|---------------------------|
|---------------------------------------|---------------------------||--4--4----4----4----4----4--4----4-----|---------------------------||--5--5----5----5----5----5--5----5-----|--7-----7-7-7--7-----7-7-7-||--6--6----6----6----6----6--6----6-----|--7-----7-7-7--7-----7-7-7-||---------------------------------------|--5-----5-5-5--5-----5-5-5-||---------------------------------------|---------------------------|
T T T T|-------------------------------||-\7---------------7-------7h11p7----||-14tr17--12h16p12h16p12h16p12\-||----7-----------7---7------------7/-||-------------------------------||------9-8---8h9-------9-8-----------||-------------------------------||----------9-------------------------||-------------------------------||------------------------------------||-------------------------------||------------------------------------|
|---------------------------------||----------------------------------||---------------------------------||----------------------------------||--7---7-7-7--9---9-----9-----9---||--4---4---4---4---4---4---4---4---||--7---7-7-7--9---9-----9-----9---||--4---4---4---4---4---4---4---4---||--5---5-5-5--7---7-----7-----7---||--2---2---2---2---2---2---2---2---||---------------------------------||----------------------------------|
|-------------17p14-----19-23p19-23b24-23b24==(23)-(23)r-23b24\-||-16h19p16h19-------17/-----------------------------------------||---------------------------------------------------------------||---------------------------------------------------------------||---------------------------------------------------------------||---------------------------------------------------------------|
|---------------------------------------------------------------||---------------------------------------------------------------||--4-----4-----4-----4---4-----4--------4-----------------4-----||--4-----4-----4-----4---4-----4--------4-----------------4-----||--2-----2-----2-----2---2-----2--------2-----------------2-----||---------------------------------------------------------------|
|----16-13-16----16-13-16----16-13-16----16-13-16---||-14----------13------------------------------------||-------------------------15----------13------------||---------------------------------------------------||---------------------------------------------------||---------------------------------------------------|
|---------------------------------------------------||---------------------------------------------------||--6-----6-----6-----6-----6-----6-----6-----6------||--6-----6-----6-----6-----6-----6-----6-----6------||--4-----4-----4-----4-----4-----4-----4-----4------||---------------------------------------------------|
|-------13---------------------|------------------------------------||-14h16----2-------------------|------------------------------------||------------11-10h11p10---/13-|-15b16===(15)r-13-15-13s11--[15]b16-||------------------------9-----|------------------------------------||------------------------------|------------------------------------||------------------------------|------------------------------------|
|--------------------------|-------------------------------------||--------------------------|-------------------------------------||--6--6--6-6-6-6-----6---6-|-------------------------------------||--6--6--6-6-6-6-----6---6-|-------------------------------------||--4--4--4-4-4-4-----4---4-|-------------------------------------||--------------------------|-------------------------------------|
|------------------------------------------||------------------------------------------||-(15)-13h15p13s11-13S15--13h15p13s11h13---||------------------------------------------||------------------------------------------||------------------------------------------|
|----------------------------------------||---4---6-------7----(7)--6--7--6-4------||---4------------------------------------||----------------------------------------||----------------------------------------||----------------------------------------|
|-----------------------------||-----------------------------||--11s13-x-x-13s=15---x-15s16-||-----------------------------||--9s=11-----11s=13-----13s14-||-----------------------------|
|---------------------------||---------------------------||------6----------6---------||----6----------6-----------||-4------2-(2)--------------||-------------------6-------|
|--------------------------------|-------------------------||--------------------------------|-------------------------||-----x-x-16s18--18-18s16-x-x-16s|=15s16s=18s13s15s=18s====||--------------------------------|-------------------------||-----x-x-14s16--16-16s14-x-x-14s|=13s14s=16s11s13s=16s====||--------------------------------|-------------------------|
|-----------------------2--------|----(2)------------------||-----------------------2--------|----(2)------------------||-------6---------6-----6--------|----(6)------------------||-----6-----------------4--------|----(4)------------------||--------------------------------|-------------------------||-(6)------4--4------------------|-------------------------|
|-------------------------------|||-------------------------------|||--11---------[23]b25-([23])--3-|||------------------------------|||--9----[16]--------------------|||-------------------------------||
|-(0)--------------------------|||-(0)--------------------------|||-(4)--------------------------|||-(2)--------------------------|||------------------------------|||------------------------------||
Interlude
|------------------------|-------------------------||------------------4---2-|-(2)---------------------||-3----------------------|-----------------4---4---||--------------2h4-----4-|-(4)--------2h=6-----4---||------------------------|-------------------------||-2-2-2-2------2-----2---|--2--2-2-2-(2)-----2-----|
|--------------2-----|--------------------|-----------------------||----------------2h4-|----6s4----4s=2-----|-----------------4---2-||---3----------------|----6s4----4s=3---3-|-(3)-------------------||---4----4-(4)-------|----------------4---|------------2--4-----4-||--------4-(4)-------|-4------2-(2)-------|-----------------------||-2---2--------------|--------------------|--2--2-2-2-(2)-----2---|
|-----------------------|--------------2-----|--------------------||-(2)-------------------|----------------2h4-|----6s4----4s=2-----||-----------------4---4-|---3----------------|----6s4----4s=3---3-||-(4)--------2--6-----4-|---4----4-(4)-------|----------------4---||-----------------------|--------4-(4)-------|-4------2-(2)-------||--2--2-2-2-(2)-----2---|-2---2--------------|--------------------|
|-----------------------|-----------------------|------------2-----||-----------------4---2-|-(2)-------------------|--------------2h4-||-(3)-------------------|-----------------4---4-|---3--------------||------------2--4-----4-|-(4)--------2--6-----4-|---4--4-(4)-------||-----------------------|-----------------------|------4-(4)-------||--2--2-2-2-(2)-----2---|--2--2-2-2-(2)-----2---|-2----------------|
|--------------------|-----------------------|-----------------------||----6s4----4s=2-----|-----------------4---2-|-(2)-------------------||----6s4----4s=3---3-|-(3)-------------------|-----------------4---4-||----------------4---|------------2--4-----4-|-(4)--------2--6-----4-||-4------2-(2)-------|-----------------------|-----------------------||--------------------|--2--2-2-2-(2)-----2---|--2--2-2-2-(2)-----2---|
Chorus
|-------2------|-----------------|---------------------||-------2------|-----------------|---------------4-----||---3----------|-----------------|-----------3s4---4-6-||---4----------|---6-6---4-------|-------------------6-||--------------|---4-4-2-2-------|-------------------4-||-2---2--------|-----------6-4-2-|-(2)-2-2-2-----------|
|--------------|-----------------|---------------------||--------------|-----------------|---------------4---6-||--------------|-----------------|--3--3-3-3-3s4---4-6-||--------------|-----------------|--4--4-4-4---------6-||--------------|-----------------|-------------------4-||--------------|-----------------|---------------------|
|--------------------|--------------------|-------2-(2)-------||--------------6-----|--------------7s6---|-6s4---2-(2)-------||-(6)---6---/6-----8-|-(8)---8-/8-8-----6-|-----4-------4---3-||-(6)-6-6--------9-8-|-(8)---8------------|-------------4---4-||-(4)--------------6-|-(6)---6------------|-------------------||--------------------|--------------------|---------------2---|
|--------------------|----------------------|--------2-(2)-------||-(6)---6------6-----|--------------11p9----|--9s7---2-(2)-------||-(6)---6---/6-----8-|-(8)----------11p10---|-10s8---------4---3-||-(6)---6-6------9-8-|-(8)-8-8--8-8------11-|------9-------4---4-||-(4)---4----------6-|-(6)------------------|--------------------||--------------------|----------------------|--------------------|
|-------------------|--------------------|--------------------||-------------4-----|--------------6-----|--------------7s6---||---------3s4---4-6-|-(6)---6---/6-----8-|-(8)---8-/8-8-----6-||-----------------6-|-(6)-6-6--------9-8-|-(8)---8------------||-----------------4-|-(4)--------------6-|-(6)---6------------||-2-2-2-2-----------|--------------------|--------------------|
|-------------------|--------------------|----------------------||-------------4---6-|-(6)---6------6-----|--------------11p9----||-3-3-3-3-3s4---4-6-|-(6)---6---/6-----8-|-(8)----------11p10---||-4-4-4-4---------6-|-(6)---6-6------9-8-|-(8)-8-8--8-8------11-||-----------------4-|-(4)---4----------6-|-(6)------------------||-------------------|--------------------|----------------------|
|-------2-(2)-------|-------------------|--------------------||-6s4---2-(2)-------|-------------4-----|--------------6-----||-----4-------4---3-|---------3s4---4-6-|-(6)---6---/6-----8-||-------------4---4-|-----------------6-|-(6)-6-6--------9-8-||-------------------|-----------------4-|-(4)--------------6-||---------------4---|-2-2-2-2-----------|--------------------|
|--------2-(2)-------|-------------------|--------------------||--9s5---2-(2)-------|-------------4---6-|-(6)---6------6-----||-10s6---------------|---------3s4---4-6-|-(6)---6---/6-----8-||------9-------------|-----------------6-|-(6)---6-6------9-8-||--------------------|-----------------4-|-(4)---4----------6-||--------------------|-2-2-2-2-----------|--------------------|
|--------------------|-------2-(2)-------|-----------------||--------------7s6---|-6S4---2-(2)-------|-----------4---6-||-(8)---8---/8-----6-|-----4-------4---3-|---------4---4-6-||-(8)-8-8------------|-6s4---------4---4-|---------------6-||-(6)---6------------|-------------------|---------------4-||--------------------|---------------2---|-2-2-2-2---------|
|----------------------|--------2-(2)-------|-----------------||--------------11-9----|--9s5---2-(2)-------|-----------4---6-||-(8)---8----8-11-10---|-10s6---------4-----|---------4---4-6-||-(8)-8---8---------11-|------9-------4-----|---------------6-||-(6)------------------|--------------------|---------------4-||----------------------|--------------------|-6-6-6-6---------|
|-------------------|--------------------|-----------------||-(6)--6------6-----|--------------7s6---|-6s4---4-----6s4-||-(6)--6---/6-----8-|-(8)-8-8----8-----6-|-------------6s4-||-(6)--6-6------9-8-|-(8)-8-8-/8---------|-----------------||-(4)--4----------6-|-(6)-6-6------------|-----2---2-2-----||-------------------|--------------------|-----------------|
|-------------------|----------------------|--------2----------||--6---6------6-----|--------------11p9----|--9s7---2------9s7-||--6---6---/6-----8-|-(8)----------11p10---|-10s8---------10s8-||--6---6-6------9-8-|-(8)-8-8--8-8------11-|------9---9-9------||--4---4----------6-|-(6)------------------|-------------------||-------------------|----------------------|-------------------|
|-----------------|------------------|------------------||---4-----6s4---4-|-7s6---6-----11s9-|---6--------------||---4-----6s4---4-|-6-----6----------|---6--------------||-------------4---|-----6---6-6------|-6---6-6-4p3----6-||-2---2-2---------|------------------|-------------/4---||-----------------|------------------|------------------|
|--------------------|-----------------------|----------------------||---7------9s7-------|-11p9-----9------11p9--|----9-----11p9--11p9--||---8-----10s8-------|-11p10---10------11p10-|----10--8-11p10-11p10-||-9---9-9------11-11-|------11-11-11-11------|-11---11--------------||--------------------|------------11-11------|----------------------||--------------------|-----------------------|----------------------|
|-----------------|-------------2---*||-7-----7---------|-------------2---*||-6-----6-----4s3-|---6-----3h4-----*||-------4---------|---4-------------*||-----------------|-----------------*||---2-2---2-2-----|-2---2-2---------*|
|-----------------|-------------2---*||-7---------------|-------------2---*||-6-----6-----4---|---6-----3h4-----*||-------4-----4---|---4-------------*||-----------------|-----------------*||---2-2---2-2---2-|-2---2-2---------*|
END Enjoy it!
Tap to rate this tab
 
# A B C D E F G H I J K L M N O P Q R S T U V W X Y Z