Who - Ox tab

Tune down whole step: DGCFAD (bass: DGCF)
Note: Chord names imply tonality only. All included is approximate.

[drum intro][bass]|--|--|--|---------|----|--------|-----|-----------|-----||--|--|--|---------|----|--------|-----|-----------|-----||--|--|--|----5--5/|7---|---5--5/|7----|------5--5/|7----||--|--|--|---------|----|--------|-----|-----------|-----|
|-------------|--------|------------|----------|------------|------|-------------|--------|------------|----------|------------|------|-------5---5/|7\5-5-5/|7-7-7/5-5-5/|7-7\5-5-5/|2-----------|--5/7-|-------------|--------|------------|----------|--3-3/5-5-5/|7-----
(C) D G -------|---------------|-----|----------|----|-------------|---------|-------|---------------|-----|----------|----|-------------|---------|--7--7/|9------------7/|9----|----------|14--|---------7-7/|9--------|--7--7/|9------------7/|9----|----------|14--|-7-5---5-7-7/|9--------|--5--5/|7---5/7-5--5-5/|7----|-5/7-5--5-|12--|-----7---5-5/|7--5-7-5-|-------|---------7-----|-----|------7---|----|-------------|---------|
A G D|-------------|------------|----------|-----------||-------------|------------|0---------|-----------||-------7-9---|------5-7---|9---------|-----------||-9-9-9-7-9---|7-7-7-5-7---|9---------|--------9-7||-9-9-9-------|7-7-7-------|7---------|------5/7/5||-7-----------|------------|0---------|------0----|
D|-------------|-------------|-------------|-------------||-------------|-------------|-------------|-------------||-------------|-------------|-------------|-------------||-------------|-------------|-------------|-------------||--7/5----5/7-|--7/5----5/7-|--7/5----5/7-|--7/5----5/7-||0-----0------|0-----0------|0-----0------|0-----0------|
G D|-------------|-------------|-------------|-------------||-------------|-------------|-------------|-------------||-------------|-------------|-------------|-------------||--7/5---5/7--|--7/5---5/7--|-------------|-------------||------0------|0-----0------|--7/5----5/7-|--7/5----5/7-||0------------|0-----0------|0-----0------|0-----0------|
A G D|-------------|-------------|--------------|----------------||-------------|-------------|--------------|----------------||-------------|-------------|--------------|----------------||---9-----7---|---7-----5---|--------------|----------------||-7---7/9-----|-7---5/7-----|--7/5----5/7--|----------------||0------------|-------------|0-----0-------|0---------------|
D|-------------|-------------|--------------|----------------||-------------|-------------|--------------|----------------||4------------|-------------|4-------------|----------------||2------------|-------------|2-------------|----------------||2------------|-------------|2-------------|----------------||0------------|-------------|0-------------|----------------|
G D|-------------|-------------|--------------|----------------||-7/8~--------|-------------|--------------|----------------||-------------|--2^\--------|--------------|--------------3-||-------------|-----------0/|2-------------|------------2^--||-------------|-------------|--------------|----------------||-------------|-------------|--------------|----------------|
A G D|-----------|---------------|---------|----------------||----------3|-------3/5-5-3/|5-5-3/5--|5-5-5-----------||2^\----2^--|2^\------------|---------|------------9-7/||-----------|---------------|---------|------------9-7/||-----------|---------------|---------|------------7-5/||-----------|---------------|---------|----------------|
D |--------------|-------------|-------------|--------------||--------------|-------------|-------------|--------------||9---9-7---7-7/|9--9-7---7-7/|9--9-7---7-7/|9--9-7---7-12/||9---9-7-9-7-7/|9--9-7-9-7-7/|9--9-7-9-7-7/|9--9-7-9-7-12/||7---7---9-----|---7---9-----|---7---9-----|---7---9------||--------------|-------------|-------------|--------------|
G D|----------------|---------------|-------------|-----------||----------------|---------------|-------------|-----------||14--12----12-12/|14--12----12-7/|9--9-7---7-7/|9--9-7---7-||14--12-14-12-12/|14--12-14-12-7/|9--9-7-9-7-7/|9--9-7-9-7-||-------14-------|-------14------|---7---9-----|---7---9---||----------------|---------------|-------------|-----------|
A G D|-------------|------------|----------|----------||-------------|------------|0---------|----------||-------7-9---|------5-7---|9---------|----------||-9-9-9-7-9---|7-7-7-5-7---|9---------|----------||-9-9-9-------|7-7-7-------|7---------|----------||-7-----------|------------|0---------|----------|
D |-------------|------------|----------|----------||-------------|------------|----------|----------||-------------|------------|----------|----------||-------------|------------|----------|----------||-------------|------------|----------|----------||-------------|------------|----------|----------|
[piano break]|-------------|------------|----------|--------3/||-------------|------------|----------|----------||-------------|------------|----------|----------||-------------|------------|----------|----------||(7)--(7)-----|(7)--(7)----|(7)--(7)--|(7)--(7)--||-------------|------------|----------|----------|
G D|5--------|-----------|----------|----------||-----3---|/5---------|----------|----------||---------|-----2^-\--|----------|----------||---------|-----------|----------|------0-/2||---------|-----------|--7/5---5/|7---2-----||---------|-----------|0-----0---|--0-------|
D |-------------|-------------|--------------|--------------||-------------|-------------|--------------|--------------||-------------|-------------|-----------2^\|-----------2^\||-----0-0\2--2|-----0-0\2--2|-----0-0\2----|-----0-0\2----||---2---------|---2---------|---2----------|---2----------||0------------|0------------|0-------------|0-------------|
D |--------------|-----------|-----------|----------|------------||--------------|-----------|-----------|----------|------------||-----------2^\|-----------|-----------|----------|------------||-----0-0\2----|------5-7--|------5-7--|----------|------------||---2----------|--5-7------|--5-7------|----------|------------||0-------------|0----------|0----------|0-3/0-3-5~|0-3/0-3-0---|
G D |----------|-------|------------|-----------||----------|-------|------------|-----------||----5-----|-------|------------|-----------||------5-5-|7------|------------|-----------||----------|------0|0---7/5---5/|7-0--7/5---||5---------|-------|0-------5---|--0------0-|
A G D|------------|------------|----------|------0-||------------|------------|----------|------0-||------7-----|------5-7---|----------|------4-||9-9-9-7-9---|7-7-7-5-7---|----------|------2-||9-9-9---9---|7-7-7-------|----------|------2-||7-----------|------------|0---------|------0*|
*bend neck forward D [amp tremelo on; amp feedback]|(0)-----------|------------|----------|----------||(0)-----------|------------|----------|----------||(4)-----------|------------|----------|----------||(2)-----------|------------|----------|----------||(2)-----------|------------|----------|----------||(0)-----------|------------|----------|----------|
G D|-------------|------------|----------|----------||-------------|------------|----------|----------||2------------|2---------2-|4---------|---------4||2------------|2---------2-|2---------|---------4||0------------|0-----------|2---------|---------2||-------------|------------|0---------|----------|
A G D|-------------|------------|---------|-----------||-------------|------------|---------|-----------||4------------|2-----------|4---4----|4----4-----||4------------|2-----------|2---2----|2----2-----||2------------|0-----------|2---2----|2----2-----||-------------|------------|0---0----|0----0-----|
D|-------------|------------|----------|----------||-------------|------------|----------|----------||-------------|-----------4|----------|----------||2------------|-----------2|2---------|----------||2------------|------------|2---------|----------||0------------|------------|0---------|----------|
G D|-------------|------------|----------|----------||-------------|------------|----------|----------||2------------|2-----------|----------|----------||2------------|2-----------|----------|----------||0------------|0----------0|----------|----------||-------------|------------|0---xxx---|---xxx----|
A G D|-------------|------------|----------|-------------||-------------|------------|----------|-------------||-------------|------------|----------|-------(4)---||-------------|------------|----------|-------(2)---||-------------|------------|----------|-------(2)---||-------------|------------|----------|-------------|
D|-----------|------------|----------|----------||-----------|------------|----------|----------||-----------|------------|----------|----------||-----------|------------|(2)-------|----------||-----------|------------|----------|----------||-----------|------------|----------|xxxxxxxxxx|
G D|-------------|------------|----------|-------------||-------------|------------|----------|-------------||-------------|------------|----------|-------2^-2^-||-------------|------------|----------|-------------||-------------|------------|----------|-------------||xxxxx--------|-xxxx-------|0---------|0------------|
(scrape strings against amp cabinet) A G D|------------|------------|------------|---------------||-----------3|-----------3|-----------3|---------------||2^-2^-2^-2^-|2^-2^-2^-2^-|2^-2^-2^-2^-|2^-2^-2^-------||------------|------------|------------|---------2/0---||------------|------------|------------|---------------||------------|------------|------------|-------------0\|
(bend neck forward) D|----------|---------|-----------|-------|-----||----------|---------|-----------|-------|-----||----------|---------|-----------|-------|-----||----------|---------|-----------|-------|-----||----------|---------|-----------|-------|-----||0---------|---------|-----------|-------|-----|
| | | | | ||----------|---------|-----------|-------|-----||----------|---------|-----------|-------|-----||----------|-----5-5/|7----------|---5-5/|7----||0---------|---------|-----------|-------|-----|
|-------|--------|--------|--------|--------|--------||-------|--------|--------|--------|--------|--------||---5-5/|7-7\5-5/|7-7\5-5/|7-7\5-5/|7-7\5-5/|7-7\5-5/||-------|--------|--------|--------|--------|--------|
Tap to rate this tab
 
# A B C D E F G H I J K L M N O P Q R S T U V W X Y Z