Within The Ruins - Versus tab

"Versus"

BY: WITHIN THE RUINS

Transcribed by Joe Keller
[Youtube user/V8EATR]
jkguitar@comcast.net

[VIDEO COMING SOON!]

Please Do Not Copy without Permission.

THANKS AND ENJOY!

Tuning
G# D# G# C# F A#


h	= hammer on
p	= pull off
/ \	= slides
*	= harmonic
^/v	= bend
s	= speed pick
d^/v	= dive w/ bar (u/d)
~	= vibr.
|	= break; start/end bar


|---------------------------9----9/14-||------------------7---7/10---10------||---------6/11\6-6---6----------------||-------------------------------------||-------------------------------------||-444-444-----------------------------|
-------------------------------------| -------------------------------------| -------------------------------------| -----6----11\10/11--7\6/7----9---7p6-| ----------9-\8-/9---5\4/5------------| -333---3-----------------------0-----|
--------------------------------------| --------------------------------------| -----6/11\6/11------------------------| -------------------9---7-6-7-6--------| -------------------------------8-4----| -444-----------444---4-------------3s-|
------------------|----------------| ------------------|----------------| ------------------|----------------| ------------------|-4---9---6---11-| -------------4-8--|-4---9---6---11-| -0-0-0-0-0h3------|-4---9---6---11-|
|-------------------------------------------||-7-6-7-/10-9-7-6-7-6-----/7-6-7-/10-9-7-6~-||---------------------6~--------------------||-------------------------------------------||-------------------------------------------||-------------------------------------------|
---------------------------------------| ---------------------------------------| ---------------------------------------| ---------------------------------------| ---------------------------------------| -4-3-4-7-6-4-3-4-4-0-0-0-4-3-4-7-6-4-3-|
|--------------------------------------------------------------------||--------------------------------------------------------------------||----------6/11\6----------------------------------------------------||--------------------------------------------------------------------||----------------------------4-------5-------5-------2-------2-------||-4444-4-4--------4-4444-4-4---7-4-0---7-4-0---7-4-0---6-3-6---6-4-6-|
-------------------------------------------------------------------| -------------------------------------------------------------------| ----------6/11\6---------------------------------------------------| -------------------------------------------------------------------| ---------------------------4-------5-------5-------7-------7-------| -4444-4-4--------4-444-4-4---7-4-0---7-4-0---7-4-0---9-6-0---9-6-0-|
|-------------------------------------------||-7-6-7-/10-9-7-6-7-6-----/7-6-7-/10-9-7-6~-||---------------------6~--------------------||-------------------------------------------||-------------------------------------------||-------------------------------------------|
---------------------------------------| ---------------------------------------| ---------------------------------------| ---------------------------------------| ---------------------------------------| -4-3-4-7-6-4-3-4-4-0-0-0-4-3-4-7-6-4-3-|
|----------------------------------------------------||----------------------------------------------------||----------------------------------------------------||----------------------------------------------------||-4-4-4-4-4-4-4-4-4--4--4-4--4-4--4-4-4-4-4--4--4--4-||-3-3-3-3-3-3-3-3-3--3--3-3--3-3--3-3-3-3-3--3--3--3-|
-------------------------------------------------| -------------------------------------------------| -------------------------------------------------| -----------------------------------------------6-| -4-4-4-4-4-4-4-4-4--4--4-4--4-4--4-4-4-4-4---4---| -3-3-3-3-3-3-3-3-3--3--3-3--3-3--3-3-3-3-3-3-----|
-----------------------------------------| -----------------------------------------| -----------------6-----------------------| -66------------6-------------------------| ----44----44-4-----4--4-4-4-4-4--4--4--4-| -------33----------3--3-3-3-3-3--3--3--3-|
---------------------------------------| ---------------------------------------| -----------------6---------------------| -66------------6-----------------------| ----44----44-4-----4--4-4-4-4-4----4---| -------33----------3--3-3-3-3-3--3---3-|
[Play this section 2x]|--------------------------------------------------------------------||--------------------------------------------------------------------||----------6/11\6----------------------------------------------------||--------------------------------------------------------------------||----------------------------4-------5-------5-------2-------2-------||-4444-4-4--------4-4444-4-4---7-4-0---7-4-0---7-4-0---6-3-6---6-4-6-|
-------------------------------------------------------------------| -------------------------------------------------------------------| ----------6/11\6---------------------------------------------------| -------------------------------------------------------------------| ---------------------------4-------5-------5-------7-------7-------| -4444-4-4--------4-444-4-4---7-4-0---7-4-0---7-4-0---9-6-0---9-6-0-|
|-----------------------------------||-----------------------------------||-----------------------------------||-------------------------11--------||-9--12-11-8--9-8-12-11-12---12--11-||-----------------------------------|
[ speed picking all notes ] ------------------------| ------------------------| ------------------------| ------------------------| -9--12-11-8--9-8-4------| ---------------------6--|
[ Play this bar 2x ]|------------------------------------------------||------------------------------------------------||------7-7-7-7-----------------------------------||------4-4-4-4------11-11-11-11--7-7-7-7-6-6-6-6-||-4444---------4444-7--7--7--7---5-5-5-5-5-5-5-5-||-4444---------4444------------------------------|
|------------------------------------||--------6h7h9/10-6------------------||------------------------------------||------------------------------------||-55--5-------------555-5-5----------||-66--6-------------666-6-6--6s--6-6-|
------------------------------------| --------6h7h9/10-6------------------| ------------------------------------| ------------------------------------| -55--5------------------------------| -66--6-------------0d[v]-6s-6--6-6--|
------------------------------------| --------6h7h9/10-6------------------| ------------------------------------| ------------------------------------| -55--5-------------555-5-5----------| -66--6-------------666-6-6--6s--6-6-|
--------------------------------------| --------6h7h9/10-6--------------------| --------------------------------------| --------------------------------------| -55--5--------------------------------| -66--6-------------[dv]0[^]-6s-6--6-6-|
|-------9-------------------------------------||-6-7-9----10-9--6--7------------------6------||----------------------6h7p6-------6-7----7-6-||----------------------------9-8-9------------||---------------------------------------------||---------------------------------------------|
|------------------------------------9----9/14-||---------------------------7---7/10---10------||------------------6/11\6-6---6----------------||----------------------------------------------||----------------------------------------------||-666-666--444-444-----------------------------|
-------------------------------------| -------------------------------------| -------------------------------------| -----6----11\10/11--7\6/7----9---7p6-| ----------9-\8-/9---5\4/5------------| -333---3-----------------------0-----|
--------------------------------------| --------------------------------------| -----6/11\6/11------------------------| -------------------9---7-6-7-6--------| -------------------------------8-4----| -444-----------444---4-------------3s-|
------------------|----------------| ------------------|----------------| ------------------|----------------| ------------------|-4---9---6---11-| -------------4-8--|-4---9---6---11-| -0-0-0-0-0h3------|-4---9---6---11-|
|-------------------------------------------||-7-6-7-/10-9-7-6-7-6-----/7-6-7-/10-9-7-6~-||---------------------6~--------------------||-------------------------------------------||-------------------------------------------||-------------------------------------------|
---------------------------------------| ---------------------------------------| ---------------------------------------| ---------------------------------------| ---------------------------------------| -4-3-4-7-6-4-3-4-4-0-0-0-4-3-4-7-6-4-3-|
|-----------------------------------5h9p5---------||-----------------------------------------7---7h9-||-------------------------------------------6-----||-3/6-3/6-3/6-3/6------3/6-3/6--------------------||-------------------------------------------------||-----------------^4v----------^4v----------------|
|------------------------------||----------------------------0-||----------------------------0-||------------------------------||-33-33-33-33-333-33-33--------||-44-44-44-44-444-44-44-^4v----|
------------------------------| ----------------------------0-| ----------------------------0-| ------------------------------| -33-33-33-33-333-33-33--------| -44-44-44-44-444-44-44-^4v----|
-----------------------------| -----------------------------| -----------------------------| -----------------------------| -33--2--333---33-3-3---33333-| -44--3--444---44-4-4---44444-|
-----------------------------| -----------------------------| -----------------------------| -----------------------------| -33--2--333---33-3-3---33333-| -44--3--444---44-4-4---44444-|
|-9p5---------------------------5-||-----7---7h9p6h7---------6-7-9---||-------6---------7---6-7---------||-------------------9-------------||---------------------------------||---------------------------------|
-9p5-----------------------------| -----7---7h9p6h7-----------------| -------6---------7-4-6---4-------| -----------------------7---6-7-4-| ---------------------------------| ---------------------------------|
Bkgrd GTR|---------------------------||---------------------------||---------------------------| 1/8 notes|---------------------------||---------------------------||-4-------0-------3-------6-|
Solo|-------------------------------------------------||---------------14~--/17-16-17--------------------||-14~--13-14-11----------------13~----------------||-----------------------------------/14-13-14-11~-||-------------------------------------------------||-------------------------------------------------|
--------------------------------------| --------------------------------------| -14-16-18-16-18-16-14----14-16-18-16~-| ----------------------18--------------| --------------------------------------| --------------------------------------|
------------------------------------------------------------------|----17-------19-------21-------22-------21------------------------|-14----14/16----16/18----18/19----19\18----18\16h18-16^--16^v-11~-|------------------------------------------------------------------|------------------------------------------------------------------|------------------------------------------------------------------|
|-9p5---------------------------5-||-----7---7h9p6h7---------6-7-9---||-------6---------7---6-7---------||-------------------9-------------||---------------------------------||---------------------------------|
-9p5-----------------------------| -----7---7h9p6h7-----------------| -------6---------7-4-6---4-------| -----------------------7---6-7-4-| ---------------------------------| ---------------------------------|
|-----------------------------------5h9p5---------||-----------------------------------------7---7h9-||-------------------------------------------6-----||-3/6-3/6-3/6-3/6------3/6-3/6--------------------||-------------------------------------------------||-----------------^4v----------^4v----------------|
|---------------------------||---------------------------||---------------------------| Play this bar 2x|---------------------------||-33--2-333--33-3--3--33333-||-44--3-444--44-4--4--44444-|
|------------------------------------------------||------------------------------------------------||------------------------------------------------||-3/6-3/6-3/6-3/6--------------------------------||----------------------33--2-333--33-3--3--33333-||-----------------^4v--44--3-444--44-4--4--44444-|
---------------------------------------------| ---------------------------------------------| ---------------------------------------------| -3/6-3/6-3/6---------------------3/6-3/6-3/6-| ----------------------33--2-333--------------| -------------0(d^)----44--3-444--------------|
[Outro]|------------------||-10-9-7-6---------||----------7-6---7-||--------------9---||------------------||------------------|
|-9p5---------------------------5-||-----7---7h9p6h7---------6-7-9---||-------6---------7---6-7---------||-------------------9-------------||---------------------------------||---------------------------------|
-9p5-----------------------------| -----7---7h9p6h7-----------------| -------6---------7-4-6---4-------| -----------------------7---6-7-4-| ---------------------------------| ---------------------------------|
Bkgrd GTR|---------------------------||---------------------------||---------------------------| 1/8 notes|---------------------------||---------------------------||-4-------0-------3-------6-|
Tap to rate this tab
 
# A B C D E F G H I J K L M N O P Q R S T U V W X Y Z