K545 Piano Sonata In C - Allegro tab with lyrics by Wolfgang Amadeus Mozart - Easy chords and tabs for guitar

Wolfgang Amadeus Mozart – K545 Piano Sonata In C - Allegro tab

Piano Sonata in C (K545), Allegro - Wolfgang Amadeus Mozart (1756-1791)
*****************************************************************************
1st version - by Francis Poulin, beginning and end
2nd version - by Hashim Al Daghistani, simple version (goes with MIDI)
******************************************************************************

Date: Sun, 11 Jul 1999 15:12:16 +0000
From: Francis Poulin 
Subject: Sonata#3

SONATA #3 (By Wolfgang Amadeus Mozart)
Tabulated by Francis Poulin

[Sonata in C, K545 - the beginning and end of the first part (Allegro)]

Legend:    . quarter note    : eighth note    , sixteenth note

*All eighth notes here.

, ,|----------0---3----|---------------------|--5-------3---8----||--1----------------|--0-----1-3-1--------|-------------------||----0---0---0---0--|----0---0-----0---0--|----2---2---0---0--||------2-------2----|--0---3---------2----|------3------------||--3-------3--------|------------3--------|--3-------3---7----||-------------------|---------------------|-------------------|
, ,|--3---1-0-1-0--------||---------------------||----0---0-----0---0--||------0---------2----||--2---------3--------||---------------------|
*All sixteenth notes from here except if indicated.
: :|----------0-1-3-5-3-1-0----------|------------0-1-3-1-0------------||----0-1-3--------------3-1-0----|--1---0-1-3-----------3-1-0------||--2---------------------5-----2--|--0-2-----------------------2-0--||--3---------------------3--------|--2------------------------------||---------------------------------|---------------------------------||---------------------------------|---------------------------------|
: :|--------------0-1-0--------------|----------------0----------------||--1-----0-1-3-------3-1-0--------|--1-------0-1-3---3-1-0----------||----0-2-------------------2-0----|------0-2---------------2-0------||--3---------------------0-----3--|--2-3-------------------2---3-2--||--5------------------------------|--3---------------------3--------||---------------------------------|---------------------------------|
:|--------------------------0-1-3--|--5-7-8-7-5-3-1-0-1-3-5-3-1-0------||------------0-2-3---0-2-3--------|------------------------------3-1--||--2-----0-2-------2--------------|--------------0---2----------------||--3-2-3--------------------------|--3---------------------------4----||--5------------------------------|-----------------------------------||---------------------------------|-----------------------------------|
. . .|------3---0-----------3---0--------|-----3-----||--0-----------1---3-----------1----|--3--3-----||--------0-------0-------0-------0--|-----4--0--||------0-------2-------0-------2----|-----5-----||----2-------3-------2-------3------|-----------||--3-------3-------3-------3--------|--3-----3--|
|-----------------------------------|--3---0-----------------0----------||-----------------------------------|----------1-----------3---3---1----||----0---0---0---0---0---0---0---0--|----0---0---0---0---0---0---0---0--||--4---4---4---4---3---3---3---3----|--2---2---2---2---2---2---2---2----||-----------------------------------|-----------------------------------||-----------------------------------|-----------------------------------|
|-----------------------------------|--3---0-----------------0----------||--1-----3-3------------------------|----------1-----------3---3---1----||----0---0---0---0---0---0---0---0--|----0---0---0---0---0---0---0---0--||--3---2---0---2---3---2---0---2----|--2---2---2---2---2---2---2---2----||-----------------------------------|-----------------------------------||-----------------------------------|-----------------------------------|
. . . .|-----------------------------------|--3-------0-3-0-----------0--------||--1-----3-3------------------------|--------1-------1-------1-----1----||----0---0---0---0---0---0---0---0--|------0-----------2---2-----2---2--||--3---2---0---2---3---2---0---2----|----2---------------3--------------||-----------------------------------|-----------------------------------||-----------------------------------|-----------------------------------|
. . . . . . . . |--1---------1-----------------7----|--12----------12-8-------------------------||--------0-3---3-0---------5-8---8--|-------------------10---------------10-----||------------------0---0-5----------|----------------------10-------7-10----10--||----0-3----------------------------|---------7-10------------0---7-------------||--------------------7--------------|-------7-------------------8---------------||-----------------------------------|-----8-------------------------------------|
. . . . . : : : : : : :|--10--------10-7-------------8-3-0--|--------------------||----------0------8------------------|--3--------3---3----||--------0----------9-----0-5--------|-----2-2-2-2-2-2-2--||------0-----------------------------|-----3-3-3-3-3-3-3--||-----------------------7------------|--------------------||----7----------------8--------------|--------------------|
. : : : : : : :|--5-------5---5----|--3-0-5-7-8-10-12-10-8-7-5-3-1-0---0--||----4-4-4-4-4-4-4--|--------5--------------5---5-----3-1--||----5-5-5-5-5-5-5--|--0---5---0--9-10--9-0---5---0---5----||----4-4-4-4-4-4-4--|--------------------------------------||-------------------|--------------------------------------||-------------------|--------------------------------------|
.|----3---3---3---3---3---3---3---3----|--0-------0-3-0---0-1--------||--3---0-------0-------0-------0-1-3--|--1-1---1-------1---3-3---3--||--0-------0-------0-------0----------|------0-------------0---0----||-------------------------------------|-----------------------------||-------------------------------------|-----------------------------||-------------------------------------|-----------------------------|
. . . .|--0--------------------------|-----8-----||--1--------------------------|-----8--1--||------------0----------------|-----9-----||----------2---2---2-3-0---0--|--2-10-----||----3---3-------3---5---2----|--3-----3--||------3-------------3--------|-----------|
****************************************************************************** ****************************************************************************** Sonata in C - Wolfgang Amadeus Mozart (1756-1791) Tabbed by: Hashim Al Daghistani E-mail: classical_guitar_method@hotmail.com Time signature - 2/4 Tuning - E A D G B E
|--------------|--0-----3-----|---------------|--------------||--1-----------|--------------|--0--------1-3-|--1-----------||-----0-----0--|-----0-----0--|-----0-----0---|-----0-----0--||--------2-----|--------2-----|--0-----3------|--------2-----||--3-----------|--3-----------|---------------|--3-----------||--------------|--------------|---------------|--------------|
|--5-----------|--3-----8-----|--3-----1--0-1-|--0-----------||--------------|--------------|---------------|--------------||-----5-----5--|-----0-----0--|-----0-----0---|-----0-----0--||--------3-----|--------------|--------0------|--------2-----||--3-----------|--3-----7-----|--2------------|--3-----------||--------------|--------------|---------------|--------------|
|------------1--|--5--1--------|------------0--|--3--0--------||-----0-1-3-----|--------3-----|-------0-1-----|--------1-----||--2------------|-----------2--|--0--2---------|-----------0--||--3------------|--------------|--2------------|--------------||---------------|--------------|---------------|--------------||---------------|--------------|---------------|--------------|
|---------------|--0-----------|--------------|-----0--1--3--||------------1--|-----1--------|-----------2--|--3-----------||-------0-2-----|--------0-----|--------2-----|--------------||--2--3---------|-----------2--|--0--3--------|--------------||--3------------|--------------|--------------|--------------||---------------|--------------|--1-----------|--------------|
|--5--8-7-5--3--|--1--0--------|-----3--0-----|-----3--0-----||---------------|--------3--1--|--0--------1--|--3--------1--||------------0--|--2-----------|--0-----0-----|--0-----0-----||--0------------|-----------4--|--------------|--------------||---------------|--------------|--------------|--------------||---------------|--------------|--------------|--------------|
|-------3---|---------|--------------|--------------||---3-------|---------|--------------|--------------||---0---0---|----0----|-----0-----0--|-----0-----0--||-----------|---------|--4-----4-----|--3-----3-----||-----------|---------|--------------|--------------||-----------|----3----|--------------|--------------|
|--3--0--------|-------0-------|--------------|--------------||--------1-----|-----3---3--1--|--1--0--0-----|--------------||-----0-----0--|-----0------0--|-----0-----0--|-----0-----0--||--2-----2-----|--2------------|--0-----3-----|--0-----3-----||--------------|---------2-----|--------------|--------------||--------------|---------------|--------------|--------------|
|--3--------0--|--------------|--1----------|--------------||--------------|-----------1--|----------3--|-----------0--||--------0-----|--2-----------|--------0----|--0-----------||-----2--------|--------3-----|-----0-------|--------2-----||--3-----------|-----3--------|-------------|-----2--------||--------------|--1-----------|--3----------|--0-----------|
|--0-----------|--------------|--------------|---------3-0-||-----------1--|--------1-----|--3--------0--|------1------||--------2-----|-----2-----2--|--------0-----|----0--------||-----2--------|--3-----------|-----0--------|--2----------||--0-----------|--------------|--------------|--3----------||--------------|--------------|--3-----------|-------------|
|--------------|--------------|--5-----5-----|--3--5-7-8--7--||--3-----------|--3-----3-----|--------------|---------------||-----2--2--2--|--2--2--2--2--|--2--2--2--2--|--0------------||-----3--3--3--|--3--3--3--3--|--4--4--4--4--|---------------||--------------|--------------|--------------|---------------||--------------|--------------|--------------|---------------|
|--5--3--1--0--|----0---0---0---0-|-----0---------||--------------|--3---3---3---3---|--3----3-1--3--||--0-----------|--0---------------|--0------------||--------------|------------------|---------------||--------------|------------------|---------------||--------------|------------------|---------------|
|--------------|--0-----3-----|---------------|--------------||--1-----------|--------------|--0--------1-3-|--1-----------||-----0-----0--|-----0-----0--|-----0-----0---|-----0-----0--||--------2-----|--------2-----|--0-----3------|--------2-----||--3-----------|--3-----------|---------------|--3-----------||--------------|--------------|---------------|--------------|
|--5-----------|--3-----8-----|--3-----1--0-1-|--0------0--||--------------|--------------|---------------|------1-----||-----5-----5--|-----0-----0--|-----0-----0---|------------||--------3-----|--------------|--------0------|------------||--3-----------|--3-----7-----|--2------------|--3---------||--------------|--------------|---------------|------------|
|--3--0--1-----|---------0--|--3--0--1-----|----------|-------------|||-----------3--|--1---1-----|-----------3--|--1---1---|------1------|||--------0-----|------------|--------------|------0---|------0------|||--------------|------------|--------------|------2---|------2------|||--------------|--3---------|--------------|--3---3---|------3------|||--------------|------------|--------3-----|----------|-------------||
Tabbed by Hashim Al Daghistani - classical_guitar_method@hotmail.com *****Please for any question, feel free to contact me******
Please rate this tab:
x1.0