Brooklyn tab with lyrics by Woodkid - Easy chords and tabs for guitar

Woodkid – Brooklyn tab

Standard Tuning
[Hey Lauren, look what I did!]
This is a really sweet song, so play it fairly slow, and let the notes ring out nicely.
Have fun playing this, it's fairly simple, but sounds fantastic.


Intro:

E|--------------------------|4--------4----4--------4----|B|7-------7----7-------7----|-----4-------------4--------|G|-----8------------8-------|---4-------4-----4-------4--|D|---8------8-----8------8--|2------2------2------2------|A|--------------------------|----------------------------|E|7------7-----7-----7------|----------------------------|
|----------------------------|4--------4----4--------4----||7--------7----7--------7----|-----4-------------4--------||-----8-------------8--------|---4-------4-----4-------4--||---8-------8-----8-------8--|2------2------2------2------||----------------------------|----------------------------||7------7------7------7------|----------------------------|
(Alternatively, you can play it as follows, it sounds the same either way. People with smaller fingers will probably prefer the first, people with bigger fingers the second.) (tl;dr: Below is a different way of playing the intro.)
E|2--------2----2--------2----|4--------4----4--------4----|B|-----4-------------4--------|-----4-------------4--------|G|---3-------3-----3-------3--|---4-------4-----4-------4--|D|----------------------------|2------2------2------2------|A|2------2------2------2------|----------------------------|E|----------------------------|----------------------------|
|2--------2----2--------2----|4--------4----4--------4----||-----4-------------4--------|-----4-------------4--------||---3-------3-----3-------3--|---4-------4-----4-------4--||----------------------------|2------2------2------2------||2------2------2------2------|----------------------------||----------------------------|----------------------------|
Verse:
E|----------------------------|4--------4----4--------4----|B|7--------7----7--------7----|-----4-------------4--------|G|-----8-------------8--------|---4-------4-----4-------4--|D|---8-------8-----8-------8--|2------2------2------2------|A|----------------------------|----------------------------|E|7------7------7------7------|----------------------------|
|----------------------------|4--------4----4--------4----||7--------7----7--------7----|-----4-------------4--------||-----8-------------8--------|---4-------4-----4-------4--||---8-------8-----8-------8--|2------2------2------2------||----------------------------|----------------------------||7------7------7------7------|----------------------------|
E|----------------------------|4--------4----4--------4----|B|7--------7----7--------7----|-----4-------------4--------|G|-----8-------------8--------|---4-------4-----4-------4--|D|---8-------8-----8-------8--|2------2------2------2------|A|----------------------------|----------------------------|E|7------7------7------7------|----------------------------|
|----------------------------|4--------4----4--------4----||7--------7----7--------7----|-----4-------------4--------||-----8-------------8--------|---4-------4-----4-------4--||---8-------8-----8-------8--|2------2------2------2------||----------------------------|----------------------------||7------7------7------7------|----------------------------|
E|3--------3----3--------3----|----------------------------|B|-----2-------------2--------|5--------5----5--------5----|G|---3-------3-----3-------3--|-----6-------------6--------|D|1------1------1------1------|---6-------6-----6-------6--|A|----------------------------|4------4------4------4------|E|----------------------------|----------------------------|
|3--------3----3--------3----|----------------------------||-----2-------------2--------|5--------5----5--------5----||---3-------3-----3-------3--|-----6-------------6--------||1------1------1------1------|---6-------6-----6-------6--||----------------------------|4------4------4------4------||----------------------------|----------------------------|
E|5--------5----5--------5----|----------------------------|B|-----7-------------7--------|5--------5----5--------5----|G|---6-------6-----6-------6--|-----6-------------6--------|D|4------4------4------4------|---6-------6-----6-------6--|A|----------------------------|4------4------4------4------|E|----------------------------|----------------------------|
|5--------5----5--------5----|----------------------------||-----7-------------7--------|5--------5----5--------5----||---6-------6-----6-------6--|-----6-------------6--------||4------4------4------4------|---6-------6-----6-------6--||----------------------------|4------4------4------4------||----------------------------|----------------------------|
E|5--------5----5--------5----|4--------4----4--------4----|B|-----7-------------4--------|-----4-------------4--------|G|---6-------6-----4-------4--|---4-------4-----4-------4--|D|4------4--------------------|2------2------2------2------|A|--------------2------2------|----------------------------|E|----------------------------|----------------------------|
|7--------7----7--------7----|7--------7----7--------7----||-----7-------------7--------|-----6-------------6--------||---7-------7-----7-------7--|---4-------4-----4-------4--||6------6------6------6------|----------------------------||----------------------------|4------4------4------4------||----------------------------|----------------------------|
Here, the piano comes in.
E|5--------5----5--------5----|10-------10---10-------10---|B|-----7-------------7--------|-----10------------10-------|G|---6-------6-----6-------6--|---10------10----10------10-|D|4------4------4------4------|8------8------8------8------|A|----------------------------|----------------------------|E|----------------------------|----------------------------|
|3--------3----3--------3----|3--------3------------------||-----5-------------5--------|-----5--------7--------7----||---4-------4-----4-------4--|---4-------4-------8--------||2------2------2------2------|2------2---------8-------8--||----------------------------|--------------6------6------||----------------------------|----------------------------|
And then we go back into our verse!
E|----------------------------|4--------4----4--------4----|B|7--------7----7--------7----|-----4-------------4--------|G|-----8-------------8--------|---4-------4-----4-------4--|D|---8-------8-----8-------8--|2------2------2------2------|A|----------------------------|----------------------------|E|7------7------7------7------|----------------------------|
|----------------------------|4--------4----4--------4----||7--------7----7--------7----|-----4-------------4--------||-----8-------------8--------|---4-------4-----4-------4--||---8-------8-----8-------8--|2------2------2------2------||----------------------------|----------------------------||7------7------7------7------|----------------------------|
E|----------------------------|4--------4----4--------4----|B|7--------7----7--------7----|-----4-------------4--------|G|-----8-------------8--------|---4-------4-----4-------4--|D|---8-------8-----8-------8--|2------2------2------2------|A|----------------------------|----------------------------|E|7------7------7------7------|----------------------------|
|----------------------------|4--------4----4--------4----||7--------7----7--------7----|-----4-------------4--------||-----8-------------8--------|---4-------4-----4-------4--||---8-------8-----8-------8--|2------2------2------2------||----------------------------|----------------------------||7------7------7------7------|----------------------------|
E|3--------3----3--------3----|----------------------------|B|-----2-------------2--------|5--------5----5--------5----|G|---3-------3-----3-------3--|-----6-------------6--------|D|1------1------1------1------|---6-------6-----6-------6--|A|----------------------------|4------4------4------4------|E|----------------------------|----------------------------|
|3--------3----3--------3----|----------------------------||-----2-------------2--------|5--------5----5--------5----||---3-------3-----3-------3--|-----6-------------6--------||1------1------1------1------|---6-------6-----6-------6--||----------------------------|4------4------4------4------||----------------------------|----------------------------|
E|5--------5----5--------5----|----------------------------|B|-----7-------------7--------|5--------5----5--------5----|G|---6-------6-----6-------6--|-----6-------------6--------|D|4------4------4------4------|---6-------6-----6-------6--|A|----------------------------|4------4------4------4------|E|----------------------------|----------------------------|
| |
|5--------5----5--------5----|----------------------------||-----7-------------7--------|5--------5----5--------5----||---6-------6-----6-------6--|-----6-------------6--------||4------4------4------4------|---6-------6-----6-------6--||----------------------------|4------4------4------4------||----------------------------|----------------------------|
E|5--------5----5--------5----|4--------4----4--------4----|B|-----7-------------4--------|-----4-------------4--------|G|---6-------6-----4-------4--|---4-------4-----4-------4--|D|4------4--------------------|2------2------2------2------|A|--------------2------2------|----------------------------|E|----------------------------|----------------------------|
| | |
|7--------7----7--------7----|7--------7----7--------7----||-----7-------------7--------|-----6-------------6--------||---7-------7-----7-------7--|---4-------4-----4-------4--||6------6------6------6------|----------------------------||----------------------------|4------4------4------4------||----------------------------|----------------------------|
And then the little interlude bit again, a little different this time...
E|5--------5----5--------5----|10-------10---10-------10---|B|-----7-------------7--------|-----10------------10-------|G|---6-------6-----6-------6--|---10------10----10------10-|D|4------4------4------4------|8------8------8------8------|A|----------------------------|----------------------------|E|----------------------------|----------------------------|
|3--------3----3--------3----|3--------3--2/3--------3----||-----5-------------5--------|-----5-------------5--------||---4-------4-----4-------4--|---4-------4-----4-------4--||2------2------2------2------|2------2------2------2------||----------------------------|----------------------------||----------------------------|----------------------------|
E|5--------5----5--------5----|10-------10---10-------10---|B|-----7-------------7--------|-----10------------10-------|G|---6-------6-----6-------6--|---10------10----10------10-|D|4------4------4------4------|8------8------8------8------|A|----------------------------|----------------------------|E|----------------------------|----------------------------|
|3--------3----3--------3----|3--------3----3--------3----||-----5-------------5--------|-----5-------------5--------||---4-------4-----4-------4--|---4-------4-----4-------4--||2------2------2------2------|2------2------2------2------||----------------------------|----------------------------||----------------------------|----------------------------|
More verse, a little different too.
E|3--------3----3--------3----|----------------------------|B|-----2-------------2--------|5--------5--4/5--------5----|G|---3-------3-----3-------3--|-----6-------------6--------|D|1------1------1------1------|---6-------6-----6-------6--|A|----------------------------|4------4------4------4------|E|----------------------------|----------------------------|
|3--------3----3--------3----|----------------------------||-----2-------------2--------|5--------5--4/5--------5----||---3-------3-----3-------3--|-----6-------------6--------||1------1------1------1------|---6-------6-----6-------6--||----------------------------|4------4------4------4------||----------------------------|----------------------------|
E|5--------5----5--------5----|----------------------------|B|-----7-------------7--------|5--------5----5--------5----|G|---6-------6-----6-------6--|-----6-------------6--------|D|4------4------4------4------|---6-------6-----6-------6--|A|----------------------------|4------4------4------4------|E|----------------------------|----------------------------|
|5--------5----5--------5----|----------------------------||-----7-------------7--------|5--------5----5--------5----||---6-------6-----6-------6--|-----6-------------6--------||4------4------4------4------|---6-------6-----6-------6--||----------------------------|4------4------4------4------||----------------------------|----------------------------|
E|5--------5----5--------5----|4--------4----4--------4----|B|-----7-------------4--------|-----4-------------4--------|G|---6-------6-----4-------4--|---4-------4-----4-------4--|D|4------4--------------------|2------2------2------2------|A|--------------2------2------|----------------------------|E|----------------------------|----------------------------|
|
|7--------7----7--------7----|7--------7----7--------7----||-----7-------------7--------|-----6-------------6--------||---7-------7-----7-------7--|---4-------4-----4-------4--||6------6------6------6------|----------------------------||----------------------------|4------4------4------4------||----------------------------|----------------------------|And the end...
E|7--------7----7--------7----|7---------------------------|B|-----6-------------6--------|----------------------------|G|---4-------4-----4-------4--|----------------------------|D|----------------------------|----------------------------|A|4------4------4------4------|4---------------------------|E|----------------------------|----------------------------|
Let the final notes ring out a little.
Please rate this tab:
x1.0