Wylde Zakk - Way Beyond Empty tab

Artist: Zakk Wylde
Album: Book of Shadows
Title: Way Beyond Empty

Tuning: Standard


Main Riff: figure out the rhythm, the cords are right…

|--3--2---0---2--3-----\------------\----------------------------||--3--3---3---3--3-----\-------3----\----------------------------||--2--2---2---2--0-----\-------0----\----------------------------||--0-------------------\----0--0----\----------------------------||----------------------\------------\----------------------------||-------------------2--\--3---------\----------------------------|
would you turn your back on me, ……… etc.
|--3--2---0---2--\------0----/--------3-------2--/--0------------||--3--3---3---3--\------3----/--------3-------3--/--3------------||--2--2---2---2--\--0---0----/---0----0-------0--/--0------------||--0-------------\--x---x----/---0---------------/-----------0---||----------------\--2---2----/---x---------------/-------0-2-----||----------------\--0---0----/---3---------------/--------h------|
way beyond empty…. D D/F# G
|-2---0--2---0--/--------2---0--/--------3--2--0-----------------||-3---3--3---3--/--------3---3--/--------3--3--3-----------------||-2---2--2---2--/--------2---2--/--------0--0--0-----------------||-0---0--0---0--/---0----0------/---0---------------------0------||---------------/---x-----------/---x---------------0--2---------||---------------/---2-----------/---3-----------------h----------|
repeat chords here, then play this fill in the G measure
|-----------------------\----------------------------------------||----3----------3-------\-----3----------3-----------------------||------0----------0-----\-------0----------0---------------------||--5------5--4-------4--\---2------2---0------0------------------||-----------------------\----------------------------------------||-----------------------\----------------------------------------|
|---------------------0----/---------------------\-----------2-||---------------------2----/---------------------\-----------3-||----0-------0--------0----/----0------0------0--\------0----2-||------0--------0-----2----/------0------0-------\--0-----0--0-||--1-----3------------0----/--1-----3------0-----\-------------||--------------------------/---------------------\----3--------|
SOLO:
|------------/---------/---------------/------/----------------||------------/----s----/--------10-----/------/-------------7-8||-------7-9--/--9--11--/--9--------9-9-/--7---/--------7--9----||-7--9-------/---------/---------------/------/--7--9----------||------------/---------/---------------/------/----------------||------------/---------/---------------/------/----------------|
|----------\-------------------\-------------------------------||-7---7-8--\-10--10-10-11------\-------------------------------||----------\---------------9-9-\--7----------------------------||----------\-------------------\-----7--9----------------------||----------\-------------------\-------h-----------------------||----------\-------------------\-------------------------------|
|----------------------------------------------------------------||----------------------------------------------------------------||-14-12-12---12-11-11---11-9-9---9-7-7---------------------------||----------------------------------------------------------------||----------------------------------------------------------------||----------------------------------------------------------------|
|----------------------------------\---------------------------||-12-10-10---10-8-8---8-7-7----7-8-\-10----10-8-7-8------------||----------------------------------\---------------------------||----------------------------------\---------------------------||----------------------------------\---------------------------||----------------------------------\---------------------------|
|-------------------/------------------------------------------||-8---10------------/------------------------------------------||----------9-9-7-9--/--7---------------------------------------||-------------------/------------------------------------------||-------------------/------------------------------------------||-------------------/------------------------------------------|
Tap to rate this tab
 
# A B C D E F G H I J K L M N O P Q R S T U V W X Y Z