After The Rain tab with lyrics by Xyz - Easy chords and tabs for guitar

Xyz – After The Rain tab

Song:After The Rain
Artist:XYZ
Album:XYZ
Tuning:Standard
Copied from different website without permission

Chords:
--------
Em-022000
Am7-x02010
Dsus2-xx0230
G5-xxx033
Cadd9-x32033G-320033
Gmaj7-xx0032G5(type 2)-xx0033D-xx0232
Intro Acoustic Ballad Q=100
G C Am74/4Gtr I-Acoustic guitar||--------------------|-------------------|-------------------|||o-----3-------------|-----3-------------|-----3-------------|||--4h5---5-(5)---4---|-4h5---5-(5)---4---|-4h5---5-(5)---4---|||--5-----5-(5)---5---|-5-----5-(5)---5---|-5-----5-(5)---5---|||o-------------------|-3-------(3)-3---3-|-0-------(0)-0---0-|||--3-------(3)-3---3-|-------------------|-------------------|
1. 2. D D Em|-3p2---0-(0)-2------||-3p2-----0-(0)-2---|-(2)-------!0-|||-3--------3----3---o||-3----------3------|-(3)-------!0-|||-2---2--------------||-2----2------------|-----------!0-|||-0------------------||-0---(0)---(0)-----|-(0)-------!2-|||-------------------o||-------------------|-----------!2-|||-----------------0--||-------------------|-----------!0-||
1st, 2nd Verses $ Em Cadd9|-(0)----0-(0)-------|-------0-(0)-------||-(0)----------0-----|-------------3-----||-(0)----------------|-----0---------0---||-(2)------------2---|---2-------------0-||-(2)--------------2-|-3-----------------||-(0)--0-------------|-------------------|
G D|-------3-(3)-------|-3p2-----0-(0)-2---------||-------------3-----|-3----3-----------3------||---0-----------0---|-2----2-----2---------2--||-----0-----------0-|-0---(0)---(0)---(0)-(0)-||-------------------|-------------------------||-3-----------------|-------------------------|
Em Cadd9|-------0-(0)-------|-------0-(0)-------||-------------0-----|-------------3-----||---------------0---|-----0---------0---||-----2-------------|---2-------------0-||---2-------------2-|-3-----------------||-0-----------------|-------------------|
D Em Gtr II | /
|-3---------0-(0)-2---------|--3------2-(2)------|||-3--3---------------3------|-----3---------2----|||-2------2-----2---------2--|-(2)---2---(2)---2--|||-0-(0)-(0)---(0)---(0)-(0)-|--------------------|||---------------------------|--------------------|||---------------------------|--------------------||
Pre-Chorus To Coda & Am7 D DsDsG5 D/F# Em | |||||| | |||||| | |||||| | / ////// / ////// / ////// /
|---------|---------|---------|----------------||---------|---------|---------|-------3--------||---------|---------|---------|----------------||---------|---------|---------|-----0-------0--||---------|---------|---------|---2-------0----||---------|---------|---------|-3-------2------|
Am7 D DsDsG5 Cadd9 | |||||| | |||||| | |||||| | / ////// / ////// / ////// /
|---------|---------|---------|-----|||---------|---------|---------|-----|||---------|---------|---------|-----|||---------|---------|---------|-----|||---------|---------|---------|-----|||---------|---------|---------|-----||
Chorus G GmG5(tyCadd9 Am7 D DsDsG5 | |||||| | |||||| | |||||| | |||||| / o///// / ////// / ////// / //////
|---------|---------|---------|---------||---------|---------|---------|---------||---------|---------|---------|---------||---------|---------|---------|---------||---------|---------|---------|---------||---------|---------|---------|---------|
G GmG5(tyCadd9 Am7 | |||||| | |||||| | |||||| / o///// / ////// / //////
|---------|---------|---------||---------|---------|---------||---------|---------|---------||---------|---------|---------||---------|---------|---------||---------|---------|---------|
D.S. al Coda $ D Em|-3---------0-(0)-2---------|-3p2-----0-(0)-2---|-(2)-------!0-|||-3--3---------------3------|-3----------3------|-(3)-------!0-|||-2------2-----2---------2--|-2----2------------|-----------!0-|||-0-(0)-(0)---(0)---(0)-(0)-|-0---(0)---(0)-----|-(0)-------!2-|||---------------------------|-------------------|-----------!2-|||---------------------------|-------------------|-----------!0-||
& D DsDsG5 D/F# Em | |||||| | | |||||| / ////// / / //////
|---------|----------------|---------||---------|-------3--------|---------||---------|----------------|---------||---------|-----0-------0--|---------||---------|---2-------0----|---------||---------|-3-------2------|---------|
Am7 D DsusG5 Cadd9 | |||||| | |||||| | || | / ////// / ////// / // /
|---------|---------|---------||---------|---------|---------||---------|---------|---------||---------|---------|---------||---------|---------|---------||---------|---------|---------|
Out-Chorus G GmG57 Cadd9 Am7 | | |||||| | |||||| | |||||| / / o///// / ////// / //////
|---------||---------|---------|---------||---------||---------|---------|---------||---------||---------|---------|---------||---------||---------|---------|---------||---------||---------|---------|---------||---------||---------|---------|---------|
D DsDsG5 G G Cadd9 | |||||| | |||||| | |||||| / ////// / o///// / //////
|---------|---------|---------||---------|---------|---------||---------|---------|---------||---------|---------|---------||---------|---------|---------||---------|---------|---------|
Am7 D | |||||| / //////
|---------|-2---0-(0)-2---------|--3----------2-(2)----||---------|-3------------3------|------3---------------||---------|-2----------------2--|--2-------2-----------||---------|-0-----------(0)-(0)-|-(0)-(0)-(0)----------||---------|---------------------|----------------------||---------|---------------------|----------------------|
G Cadd9 G|-2--------|-------------------|-------3---------|-!3----*||-3--------|-----3-------------|-----3---3-------|-!3----*||----------|-4h5---5-(5)---4---|-4h5-------5-----|-!0----*||-0--------|-5-----5-(5)---5---|-5-----------5-0-|-!0----*||----------|-------------------|-3---------------|-!2----*||----------|-3-----------3---3-|-----------------|-!3----*|
To give credit for this tab, I found it on a different sight, and it looked cool.
Please rate this tab:
x1.0