Yattering - Schism tab

Band: Yattering
Album: Genocide
Song: Schism
Record Label: Candlelight
Tuning: Ab Eb Ab Db F Bb


------------------------------------------------------------------|------------------------------------------------------------------|------------------------------------------------------------------|---------------5---------4-5---------------5----------------------|-1-4-2-----1-2-3-4-5-5-6-----1-4-2-----1-2-3-4-5-7-7-7-7-6-6-6-6--|-1-4-2-3-4-------4-5---------1-4-2-3-4-------4-5------------------| pm. . . . . . . . . . . . . . . . . . .
--------------------------------------------------|--------------------------------------------------|--------------------------------------------------|---------------5---------4-5---------------5------|-1-4-2-----1-2-3-4-5-5-6-----1-4-2-----1-2-3-4-5--|-1-4-2-3-4-------4-5---------1-4-2-3-4-------4-5--| pm. . . . . . . . . . .
------------------------------------------------------------------------|------------------------------------------------------------------------|------------------------------------------------------------------------|-----------------5---------4-5-------------------5----------------------|-1-4-2-----1-2-1-3-4-5-5-6-----1-1-4-2-----1-2-1-3-4-5-7-7-7-7-6-6-6-6--|-1-4-2-3-4-----1---4-5---------1-1-4-2-3-4-----1---4-5------------------| pm. . . . . . . . . . . . . . . . . . . . . .
--------------------------------------------------------|--------------------------------------------------------|--------------------------------------------------------|-----------------5---------4-5-------------------5------|-1-4-2-----1-2-1-3-4-5-5-6-----1-1-4-2-----1-2-1-3-4-5--|-1-4-2-3-4-----1---4-5---------1-1-4-2-3-4-----1---4-5--| pm. . . . . . . . . . . . . .
------------------------------------|------------------------------------|------------------------------------|------------------------------------|------------------------------------|-11114422222222-11114422222222-2-5--|X2 pm.
----------------------------------------------------------------------|----------------------------------------------------------------------|----------------------------------------------------------------------|----------------------------------------------------------------------|-5--0------3-2-5--0------3-2-5--0------3-2-5--0------3-2-5--0---------|--66-666666-----66-666666-----66-666666-----66-666666-----66--666666--| pm ...... .. ...... .. ...... .. ...... .. ......
----------------------------------------------------------|----------------------------------------------------------|----------------------------------------------------------|----------------------------------------------------------|-5--0------3-2-5--0------3-2-5--0------3-2-5--0------3-2--|--66-666666-----66-666666-----66-666666-----66-666666-----| pm ...... .. ...... .. ...... .. ......
------------------------------------|------------------------------------|------------------------------------|------------------------------------|------------------------------------|-11114422222222-11114422222222-2-5--|X2 pm.
----------------------------------------------------------------------|----------------------------------------------------------------------|----------------------------------------------------------------------|----------------------------------------------------------------------|-5--0------3-2-5--0------3-2-5--0------3-2-5--0------3-2-5--0---------|--66-666666-----66-666666-----66-666666-----66-666666-----66--666666--| pm ...... .. ...... .. ...... .. ...... .. ......
----------------------------------------------------------|----------------------------------------------------------|----------------------------------------------------------|----------------------------------------------------------|-5--0------3-2-5--0------3-2-5--0------3-2-5--0------3-2--|--66-666666-----66-666666-----66-666666-----66-666666-----| pm ...... .. ...... .. ...... .. ......
-------------------------------------|-------------------------------------|-------------------------------------|---5---------------------------------|-----6-------------------------------|-5-----8--7-8-9-10-7-8-7-9-7-8-9-10--|X2pm . . . .. . . . . . . . ..
-------------------------------------|-------------------------------------|-------------------------------------|---0---------------------------------|-----1-------------------------------|-0-----3-2-3-4-5-2-3-2-4-2-3-4-5-(0)-|X2pm . . . . . . . . . . . .(0) only on last time
---------------|---------------|---------------|-7-------------|-5-7-9-7-10-7--|---7-9-7-10-7--|X2pm . . . .. .
---------------|---------------|---------------|---------------|-5-------------|---7-9-7-10-7--|X2trem.........
------------------------------------------------------------------|------------------------------------------------------------------|------------------------------------------------------------------|---------------5---------4-5---------------5----------------------|-1-4-2-----1-2-3-4-5-5-6-----1-4-2-----1-2-3-4-5-7-7-7-7-6-6-6-6--|-1-4-2-3-4-------4-5---------1-4-2-3-4-------4-5------------------| pm. . . . . . . . . . . . . . . . . . .
--------------------------------------------------|--------------------------------------------------|--------------------------------------------------|---------------5---------4-5---------------5------|-1-4-2-----1-2-3-4-5-5-6-----1-4-2-----1-2-3-4-5--|-1-4-2-3-4-------4-5---------1-4-2-3-4-------4-5--| pm. . . . . . . . . . .
------------------------------------------------------------------------|------------------------------------------------------------------------|------------------------------------------------------------------------|-----------------5---------4-5-------------------5----------------------|-1-4-2-----1-2-1-3-4-5-5-6-----1-1-4-2-----1-2-1-3-4-5-7-7-7-7-6-6-6-6--|-1-4-2-3-4-----1---4-5---------1-1-4-2-3-4-----1---4-5------------------| pm. . . . . . . . . . . . . . . . . . . . . .
--------------------------------------------------------|--------------------------------------------------------|--------------------------------------------------------|-----------------5---------4-5-------------------5------|-1-4-2-----1-2-1-3-4-5-5-6-----1-1-4-2-----1-2-1-3-4-5--|-1-4-2-3-4-----1---4-5---------1-1-4-2-3-4-----1---4-5--| pm. . . . . . . . . . . . . .
-----------|-----------|-----------|-----------|-----1-----|-----1-----|
----------------------|----------------------|----------------------|----------------------|-------------2-3-5-6--|-311151117111---------|X2 pm..................
-----------|-----------|-----------|-----------|-----1-----|-----1-----|
----------------------|----------------------|----------------------|----------------------|-------------2-3-5-6--|-311151117111---------|X4 pm..................
------------------------------------|------------------------------------|------------------------------------|------------------------------------|------------------------------------|-11114422222222-11114422222222-2-5--|X4 pm.
----------------------------------------------------------------------|----------------------------------------------------------------------|----------------------------------------------------------------------|----------------------------------------------------------------------|-5--0------3-2-5--0------3-2-5--0------3-2-5--0------3-2-5--0---------|--66-666666-----66-666666-----66-666666-----66-666666-----66--666666--| pm ...... .. ...... .. ...... .. ...... .. ......
----------------------------------------------------------|----------------------------------------------------------|----------------------------------------------------------|----------------------------------------------------------|-5--0------3-2-5--0------3-2-5--0------3-2-5--0------3-2--|--66-666666-----66-666666-----66-666666-----66-666666-----| pm ...... .. ...... .. ...... .. ......
---------------|---------------|---------------|---------------|-22-2-2-222-2--|-22-2-2-222-2--| pm . . ...
(Lead Guitar)-12-12-12-12-12-12-12-12\9--|----------------------------|----------------------------|----------------------------|----------------------------|----------------------------|
-------------------|-------------------|-------------------|-----4-----8-7-10--|-0-2---4-6---------|-------------------|X4 trem.............
---------------|---------------|---------------|---------------|-22-2-2-222-2/-|-22-2-2-222-2/-| pm . . ...
-------------------|-------------------|-------------------|-----4-----8-7-10--|-0-2---4-6---------|-------------------|X2 trem.............
---------------|---------------|---------------|---------------|-22-2-2-222-2/-|-22-2-2-222-2/-| pm . . ...
-------------------|-------------------|-------------------|-------------------|-2-2-2-2-25-3-4/5--|-2-2-2-2-25-2-4/5--|X5pm . . . .. .
---------------|---------------|---------------|---------------|-2-5-2-4-2-2/--|-2-5-2-4-2-2/--|X2pm . . . .
--------------|--------------|--------------|--------------|-2-5-2-4-2-2--|-2-5-2-4-2-2--|pm . . . .
-------------|-------------|-------------|-7-2-4-2-5-2-|-5-0-2-0-3-0-|-------------|X2 pm. . . . .
-------------|-------------|-------------|-------------|-5-0-2-0-3-0-|-------------|X2 trem.......
------------------------------------------------------------------|------------------------------------------------------------------|------------------------------------------------------------------|---------------5---------4-5---------------5----------------------|-1-4-2-----1-2-3-4-5-5-6-----1-4-2-----1-2-3-4-5-7-7-7-7-6-6-6-6--|-1-4-2-3-4-------4-5---------1-4-2-3-4-------4-5------------------| pm. . . . . . . . . . . . . . . . . . .
--------------------------------------------------|--------------------------------------------------|--------------------------------------------------|---------------5---------4-5---------------5------|-1-4-2-----1-2-3-4-5-5-6-----1-4-2-----1-2-3-4-5--|-1-4-2-3-4-------4-5---------1-4-2-3-4-------4-5--| pm. . . . . . . . . . .
------------------------------------------------------------------------|------------------------------------------------------------------------|------------------------------------------------------------------------|-----------------5---------4-5-------------------5----------------------|-1-4-2-----1-2-1-3-4-5-5-6-----1-1-4-2-----1-2-1-3-4-5-7-7-7-7-6-6-6-6--|-1-4-2-3-4-----1---4-5---------1-1-4-2-3-4-----1---4-5------------------| pm. . . . . . . . . . . . . . . . . . . . . .
--------------------------------------------------------|--------------------------------------------------------|--------------------------------------------------------|-----------------5---------4-5-------------------5------|-1-4-2-----1-2-1-3-4-5-5-6-----1-1-4-2-----1-2-1-3-4-5--|-1-4-2-3-4-----1---4-5---------1-1-4-2-3-4-----1---4-5--| pm. . . . . . . . . . . . . .
THE END
Tap to rate this tab
 
# A B C D E F G H I J K L M N O P Q R S T U V W X Y Z