Yiruma - Rivers Flow In You tab

Yiruma - Rivers flow in you
(In electric-guitar)

Pre-Intro:

|----------------------------|--------------------------------||---10-9-10-9-10---10--3---2-|--10-9-10-9-10---10--3---2-3/9--||----------------9-----------|---------------9----------------||----------------------------|--------------------------------||----------------------------|--------------------------------||----------------------------|--------------------------------|
Song:
|------------------------------------|--------------------------------------||-10-9-10-9-10---10--3-2-3-3/5-2-0---|--------------2----2-3-5--3-2------(2)||--------------9---------------------|-2-1-2--1-2-4----4------------4-(1-2)-||------------------------------------|--------------------------------------||------------------------------------|--------------------------------------||------------------------------------|--------------------------------------|
|------------------------------------------------------------||-10-9-10-9-10---10--3-2-3-3/5-5/14-12--14-12----------------||--------------9-------------------------------14-13-14------||-------------------------------------------------------(14)-||------------------------------------------------------------||------------------------------------------------------------|
|-------------------------------||-------2----2-3-5--3-2------(2)||-1-2-4----4------------4-(1-2)-||-------------------------------||-------------------------------||-------------------------------|
Play two times this ~~~~~~~~~~~~~~~~~~~~ and after play this || || || || \../ \../ \/ \/ |-----------------| |------------------9-10-12-10-9---------------| |-10-12-10-9-10---| |-10-12-10-9-10-12--------------10-9----------||---------------9-| |-----------------------------------(9)-------||-----------------| |---------------------------------------------| |-----------------| |---------------------------------------------||-----------------| |---------------------------------------------|(Play all 3 times)
After: ( x 2 ) || ||
\../ \/|--------------------| |---------------------9-10-10h12-10-9--------------||-10-10h12-10-9-10---| |-10-10h12-10-9-10-12-----------------10-9---------||------------------9-| |-----------------------------------------(9)------||--------------------| |-------------------------------------------(9)-(2)||--------------------| |--------------------------------------------------||--------------------| |--------------------------------------------------|
|----------------------------------------||-2/9-10-9-10-9-10---10--3-2-3-3/5-2-0---||------------------9---------------------||----------------------------------------||----------------------------------------||----------------------------------------|
|--------------------------------------||--------------2----2-3-5--3-2------(2)||-2-1-2--1-2-4----4------------4-(1-2)-||--------------------------------------||--------------------------------------||--------------------------------------|
|------------------------------------------------------------||-10-9-10-9-10---10--3-2-3-3/5-5/14-12--14-12----------------||--------------9-------------------------------14-13-14------||-------------------------------------------------------(14)-||------------------------------------------------------------||------------------------------------------------------------|
|-------------------------------||-------2----2-3-5--3-2------(2)||-1-2-4----4------------4-(1-2)-||-------------------------------||-------------------------------||-------------------------------|
( x 2 ) || ||
\../ \/|--------------------| |---------------------9-10-10h12-10-9--------------||-10-10h12-10-9-10---| |-10-10h12-10-9-10-12-----------------10-9---------||------------------9-| |-----------------------------------------(9)------||--------------------| |--------------------------------------------------||--------------------| |--------------------------------------------------||--------------------| |--------------------------------------------------|(Play all 3 times)
( x 2 ) || ||
\../ \/|--------------------| |---------------------9-10-10h12-10-9--------------||-10-10h12-10-9-10---| |-10-10h12-10-9-10-12-----------------10-9---------||------------------9-| |-----------------------------------------(9)------||--------------------| |-------------------------------------------(9)-(2)||--------------------| |--------------------------------------------------||--------------------| |--------------------------------------------------|
Mini-solo:
|---------------------------------------------------------------||-----10-9-9---------7-5-5/7-7-3-----5-7-3-----3-2-2-2----------||--2---------9---2-----------------2----------2----------4-4-2--||-4-------------4----------------4----------4-------------------||---------------------------------------------------------------||---------------------------------------------------------------|
|------------5-4-4---------------------------------------------||-------2-2-------(5)-----7-5-5/7-7--------3-2-2-3-------------||-2-1-2-----------------2----------------2---------------------||---------------------4----------------4-----------------7-6---||----------------------------------------------------5-7-------||--------------------------------------------------------------|
( x 2 ) || ||
\../ \/|--------------------| |---------------------9-10-10h12-10-9--------------||-10-10h12-10-9-10---| |-10-10h12-10-9-10-12-----------------10-9---------||------------------9-| |-----------------------------------------(9)------||--------------------| |--------------------------------------------------||--------------------| |--------------------------------------------------||--------------------| |--------------------------------------------------|(Play 4 times)
( x 2 ) || ||
\../ \/|--------------------| |---------------------9-10-10h12-10-9--------------||-10-10h12-10-9-10---| |-10-10h12-10-9-10-12-----------------10-9---------||------------------9-| |-----------------------------------------(9)------||--------------------| |-------------------------------------------(9)-(2)||--------------------| |--------------------------------------------------||--------------------| |--------------------------------------------------|
|--------------5--||-----------------||-----------------||---5-7-5-3-------||-3---3-3-3-------||-----------------| End~
Enjoy it ^^
Tap to rate this tab
 
# A B C D E F G H I J K L M N O P Q R S T U V W X Y Z