Zakk Wylde - I Thank You My Child tab

Artist: Zakk Wylde
Album: Book of Shadows
Title: I thank you my child

From: www.BlackLabelSociety.net

Tabbed By: Matt Pavlichko

Tuning: Dropped D

Time: 3 /4 time

INTRO:
Play 3 times          4th time

|-----------------/-----------------/--------------------------||-----------------/-----------------/--------------------------||-----------0-----/---------0-------/--------------------------||-------4------4--/-------0-------0-/--------------------------||----5----5-------/----0------------/--------------------------||--0--------------/--3---------5----/--------------------------|
VERSE: Play 4 times.... 5th time...
|-----------------/----------------/--------------/------------||-----------------/----------------/--------------/------------||------------0----/------------0---/----------0---/--------0---||------4-------4--/-------0------0-/------0-----0-/-----4---4--||---5----5--------/--0--3----3-----/-0--2---2-----/--5---5-----||-0---------------/----h-----------/---h----------/-0----------|
chorus part
|---------------/--------------/--------------/----------------||---------------/--------------/--------------/----------------||-----------0---/----------0---/----------0---/---------0------||-------3-----3-/------2-----2-/------4-----4-/-----4-----4----||----3----3-----/----2---2-----/----5---5-----/---5---5--------||--3------------/--2-----------/--0-----------/-0--------------|
|--------------/--------------/------------/-------------------||----------1---/----------1---/------------/-------------------||-----2------2-/-----0------0-/---------0--/---------0---------||-3-----3------/--2----2------/-----4----4-/-----4-----4-------||--------------/--------------/---5---5----/---5---5-----------||--------------/--------------/-0----------/-0-----------------|
|-------------/-----------/--------------/---------------------||-------------/-----------/--------------/---------------------||---------0---/-------0---/----------0---/--------0------------||-----3-----3-/----2----2-/------4-----4-/----4-----4----------||---3---3-----/--2--2-----/---5----5-----/--5---5--------------||-3-----------/-2---------/-0------------/-0-------------------|
|----------3---/---------3---/------------2---/-0--2-----------||------3-----0-/-----3-----3-/-------3--------/---h--3---------||---0----0-----/---0---0-----/----2----2----2-/--------2-------||--------------/-------------/----------------/-----------0----||-3------------/-2-----------/----------------/-------------2--||--------------/-------------/--0-------------/----------------|
|------------3---/---------3---/---------2---/--0--2-----------||-------3--------/-----3-------/-----3-------/----h--3---------||----0----0----0-/---0---0---0-/---2---2---2-/---------2-------||----------------/-------------/-------------/-----------------||-3--------------/-2-----------/-------------/------------0-2--||----------------/-------------/-0-----------/-----------------|
part before heavy chords:
|------2--/---5--/--4--/--3----/-------------------------------||--2---3--/---6--/--5--/--4----/------------------2------------||--3---2--/---5--/--4--/--3----/------------------3------------||--0---0--/------/-----/-------/------------------0------------||--0------/------/-----/-------/--3-2-0--3-0--3---0------------||--0------/------/-----/-------/--3-2-0--3-0--3---0------------|
Tap to rate this tab
 
# A B C D E F G H I J K L M N O P Q R S T U V W X Y Z