Walk tab with lyrics by Zornik - Easy chords and tabs for guitar

Zornik – Walk tab

Intro 'crunch sound'

|-------------------------------------------||--5-5-5-5-5-5-5---6-6-6-6-6-6-6------------||--5-5-5-5-5-5-5---5-5-5-5-5-5-5------------||-------------------------------------------||-------------------------------------------||-------------------------------------------|
|-------------------------------------------||--5-5-5-5-5-5-5---6-6-6-6-6-6-6------------||--5-5-5-5-5-5-5---5-5-5-5-5-5-5------------||-------------------------------------------||-------------------------------------------||-------------------------------------------|
|-------------------------------------------||-<13>--pinch-harmonic----------------------||-------------------------------------------||-------------------------------------------||-------------------------------------------||-------------------------------------------|
Distortion gitaar
|-------------------------------------------||-------------------------------------------||-------4-----------------------------------||-5-5-5-2-5-5-------------------------------||-3-3-3---3-3--3-3-3-5-3-3------------------||--------------1-1-1-3-1-1------------------|
|-------------------------------------------||-------------------------------------------||-------4-----------------------------------||-5-5-5-2-5-5-------------------------------||-3-3-3---3-3--5-5-5-5-5-5------------------||--------------3-3-3-3-3-3------------------|
|-------------------------------------------||-------------------------------------------||-------4-----------------------------------||-5-5-5-2-5-5--10-10-10-12-10-10------------||-3-3-3---3-3--8--8--8--10-8--8-------------||-------------------------------------------|
|-------------------------------------------||-------------------------------------------||-------4-----------------------------------||-5-5-5-2-5-5-------------------------------||-3-3-3---3-3--5-5-5-5---5------------------||--------------3-3-3-3---3------------------|
clean
|-------------------------------------------||--5-5-5-5-5-5-5---6-6-6-6-6-6-6------------||--5-5-5-5-5-5-5---5-5-5-5-5-5-5------------||-------------------------------------------||-------------------------------------------||-------------------------------------------|
|-------------------------------------------||--5-5-5-5-5-5-5---6-6-6-6-6-6-6------------||--5-5-5-5-5-5-5---5-5-5-5-5-5-5------------||-------------------------------------------||-------------------------------------------||-------------------------------------------|
verse 1 'Future goals, don't mean a thing'|-------------------------------------------||--5-5-5-5-5-5-5---6-6-6-6-6-6-6------------||--5-5-5-5-5-5-5---5-5-5-5-5-5-5------------||-------------------------------------------||-------------------------------------------||-------------------------------------------|
'They don't mean a thing, unless you bring it on '|-------------------------------------------||--5-5-5-5-5-5-5---6-6-6-6-6-6-6------------||--5-5-5-5-5-5-5---5-5-5-5-5-5-5------------||-------------------------------------------||-------------------------------------------||-------------------------------------------|
'And every war, kills everyone '|-------------------------------------------||--5-5-5-5-5-5-5---6-6-6-6-6-6-6------------||--5-5-5-5-5-5-5---5-5-5-5-5-5-5------------||-------------------------------------------||-------------------------------------------||-------------------------------------------|
'cause we're all part of the monstrosity'|-------------------------------------------||--5-5-5-5-5-5-5---6-6-6-6-6-6-6------------||--5-5-5-5-5-5-5---5-5-5-5-5-5-5------------||-------------------------------------------||-------------------------------------------||-------------------------------------------|
( solo melody 'clean') ^ @ background|------8--------8--------8--------8---------||--5-6------5-6------5-6------5-6-----------||-------------------------------------------||-------------------------------------------||-------------------------------------------||-------------------------------------------|
|------8--------8--------8--------8---------||--5-6------5-6------5-6------5-6-----------||-------------------------------------------||-------------------------------------------||-------------------------------------------||-------------------------------------------|
|------8--------8--------8--------8---------||--5-6------5-6------5-6------5-6-----------||-------------------------------------------||-------------------------------------------||-------------------------------------------||-------------------------------------------|
|------8--------8--------8--------8---------||--5-6------5-6------5-6------5-6-----------||-------------------------------------------||-------------------------------------------||-------------------------------------------||-------------------------------------------|
|------8--------8--------8--------8---------||--5-6------5-6------5-6------5-6-----------||-------------------------------------------||-------------------------------------------||-------------------------------------------||-------------------------------------------|
|------8--------8--------8--------8---------||--5-6------5-6------5-6------5-6-----------||-------------------------------------------||-------------------------------------------||-------------------------------------------||-------------------------------------------|
|------8--------8--------8--------8---------||--5-6------5-6------5-6------5-6-----------||-------------------------------------------||-------------------------------------------||-------------------------------------------||-------------------------------------------|
|------8--------8--------8------------------||--5-6------5-6------5-6--------------------||-------------------------------------------||-------------------------------------------||-------------------------------------------||-------------------------------------------|
chorus ( distortion )
'then you walk'|-------------------------------------------||-------------------------------------------||-------4-----------------------------------||-5-5-5-2-5-5-------------------------------||-3-3-3---3-3--3-3-3-5-3-3------------------||--------------1-1-1-3-1-1------------------|
|-------------------------------------------||-------------------------------------------||-------4-----------------------------------||-5-5-5-2-5-5-------------------------------||-3-3-3---3-3--5-5-5-5-5-5------------------||--------------3-3-3-3-3-3------------------|
|-------------------------------------------||-------------------------------------------||-------4-----------------------------------||-5-5-5-2-5-5--10-10-10-12-10-10------------||-3-3-3---3-3--8--8--8--10-8--8-------------||-------------------------------------------|
|-------------------------------------------||-------------------------------------------||-------4-----------------------------------||-5-5-5-2-5-5-------------------------------||-3-3-3---3-3--5-5-5-5-5-5------------------||--------------3-3-3-3-3-3------------------|
second guitar( bridge part distrotion) sweep this part
|--12-12-12-12-12-12-12-12-12-12-12-12-12---||--x--x--x--x--x--x--x--x--x--x--x--x--x----||--9--9--9--9--9--9--9--9--9--9--9--9--9----||-------------------------------------------||-------------------------------------------||-------------------------------------------|
( solo melody 'clean') |------8--------8--------8--------8---------||--5-6------5-6------5-6------5-6-----------||-------------------------------------------||-------------------------------------------||-------------------------------------------||-------------------------------------------|
|------8--------8--------8--------8---------||--5-6------5-6------5-6------5-6-----------||-------------------------------------------||-------------------------------------------||-------------------------------------------||-------------------------------------------|
verse 2 " Bending words is what you do " |------8--------8--------8--------8---------||--5-6------5-6------5-6------5-6-----------||-------------------------------------------||-------------------------------------------||-------------------------------------------||-------------------------------------------|
|------8--------8--------8--------8---------||--5-6------5-6------5-6------5-6-----------||-------------------------------------------||-------------------------------------------||-------------------------------------------||-------------------------------------------|
|------8--------8--------8--------8---------||--5-6------5-6------5-6------5-6-----------||-------------------------------------------||-------------------------------------------||-------------------------------------------||-------------------------------------------|
|------8--------8--------8--------8---------||--5-6------5-6------5-6------5-6-----------||-------------------------------------------||-------------------------------------------||-------------------------------------------||-------------------------------------------|
|------8--------8--------8--------8---------||--5-6------5-6------5-6------5-6-----------||-------------------------------------------||-------------------------------------------||-------------------------------------------||-------------------------------------------|
|------8--------8--------8--------8---------||--5-6------5-6------5-6------5-6-----------||-------------------------------------------||-------------------------------------------||-------------------------------------------||-------------------------------------------|
|------8--------8--------8--------8---------||--5-6------5-6------5-6------5-6-----------||-------------------------------------------||-------------------------------------------||-------------------------------------------||-------------------------------------------|
|------8--------8--------8------------------||--5-6------5-6------5-6--------------------||-------------------------------------------||-------------------------------------------||-------------------------------------------||-------------------------------------------|
chorus ( distortion )
'then you walk'|-------------------------------------------||-------------------------------------------||-------4-----------------------------------||-5-5-5-2-5-5-------------------------------||-3-3-3---3-3--3-3-3-5-3-3------------------||--------------1-1-1-3-1-1------------------|
|-------------------------------------------||-------------------------------------------||-------4-----------------------------------||-5-5-5-2-5-5-------------------------------||-3-3-3---3-3--5-5-5-5-5-5------------------||--------------3-3-3-3-3-3------------------|
|-------------------------------------------||-------------------------------------------||-------4-----------------------------------||-5-5-5-2-5-5--10-10-10-12-10-10------------||-3-3-3---3-3--8--8--8--10-8--8-------------||-------------------------------------------|
|-------------------------------------------||-------------------------------------------||-------4-----------------------------------||-5-5-5-2-5-5-------------------------------||-3-3-3---3-3--5-5-5-5-5-5------------------||--------------3-3-3-3-3-3------------------|
chorus repeat
|-------------------------------------------||-------------------------------------------||-------4-----------------------------------||-5-5-5-2-5-5-------------------------------||-3-3-3---3-3--3-3-3-5-3-3------------------||--------------1-1-1-3-1-1------------------|
|-------------------------------------------||-------------------------------------------||-------4-----------------------------------||-5-5-5-2-5-5-------------------------------||-3-3-3---3-3--5-5-5-5-5-5------------------||--------------3-3-3-3-3-3------------------|
|-------------------------------------------||-------------------------------------------||-------4-----------------------------------||-5-5-5-2-5-5--10-10-10-12-10-10------------||-3-3-3---3-3--8--8--8--10-8--8-------------||-------------------------------------------|
|-------------------------------------------||-------------------------------------------||-------4-----------------------------------||-5-5-5-2-5-5-------------------------------||-3-3-3---3-3--5-5-5-5-5-5------------------||--------------3-3-3-3-3-3------------------|
bridge part clean
|-------------------------------------------||--5-5-5-5-5-5-5---6-6-6-6-6-6-6------------||--5-5-5-5-5-5-5---5-5-5-5-5-5-5------------||-------------------------------------------||-------------------------------------------||-------------------------------------------|
|-------------------------------------------||--5-5-5-5-5-5-5---6-6-6-6-6-6-6------------||--5-5-5-5-5-5-5---5-5-5-5-5-5-5------------||-------------------------------------------||-------------------------------------------||-------------------------------------------|
distortion |-------------------------------------------||-------------------------------------------||-------------------------------------------||-------2-----------------------------------||-3-3-3---3-3--8--8--8-10-8--8--------------||-------------------------------------------|
|-------------------------------------------||-------------------------------------------||-------------------------------------------||-------2-----------------------------------||-3-3-3---3-3-------------------------------||--------------3-3-3-3-3-3------------------|
chorus ( distortion )
'then you walk'|-------------------------------------------||-------------------------------------------||-------4-----------------------------------||-5-5-5-2-5-5-------------------------------||-3-3-3---3-3--3-3-3-5-3-3------------------||--------------1-1-1-3-1-1------------------|
|-------------------------------------------||-------------------------------------------||-------4-----------------------------------||-5-5-5-2-5-5-------------------------------||-3-3-3---3-3--5-5-5-5-5-5------------------||--------------3-3-3-3-3-3------------------|
|-------------------------------------------||-------------------------------------------||-------4-----------------------------------||-5-5-5-2-5-5--10-10-10-12-10-10------------||-3-3-3---3-3--8--8--8--10-8--8-------------||-------------------------------------------|
|-------------------------------------------||-------------------------------------------||-------4-----------------------------------||-5-5-5-2-5-5-------------------------------||-3-3-3---3-3--5-5-5-5-5-5------------------||--------------3-3-3-3-3-3------------------|
chorus repeat with melody
|-------------------------------------------||-------------------------------------------||-------4-----------------------------------||-5-5-5-2-5-5-------------------------------||-3-3-3---3-3--3-3-3-5-3-3------------------||--------------1-1-1-3-1-1------------------|
|-------------------------------------------||-------------------------------------------||-------4-----------------------------------||-5-5-5-2-5-5-------------------------------||-3-3-3---3-3--5-5-5-5-5-5------------------||--------------3-3-3-3-3-3------------------|
|-------------------------------------------||-------------------------------------------||-------4-----------------------------------||-5-5-5-2-5-5--10-10-10-12-10-10------------||-3-3-3---3-3--8--8--8--10-8--8-------------||-------------------------------------------|
|-------------------------------------------||-------------------------------------------||-------4-----------------------------------||-5-5-5-2-5-5-------------------------------||-3-3-3---3-3--5-5-5-5-5-5------------------||--------------3-3-3-3-3-3------------------|
melody second guitar distortion
|--/15--/13--/12--/10-----------------------||-------------------------------------------||-------------------------------------------||-------------------------------------------||-------------------------------------------||-------------------------------------------|
|--/15--/13--/12--/10-----------------------||-------------------------------------------||-------------------------------------------||-------------------------------------------||-------------------------------------------||-------------------------------------------|
crunch|-------------------------------------------||--5-5-5-5-5-5-5---6-6-6-6-6-6-6------------||--5-5-5-5-5-5-5---5-5-5-5-5-5-5------------||-------------------------------------------||-------------------------------------------||-------------------------------------------|
|-------------------------------------------||--5-5-5-5-5-5-5---6-6-6-6-6-6-6------------||--5-5-5-5-5-5-5---5-5-5-5-5-5-5------------||-------------------------------------------||-------------------------------------------||-------------------------------------------|
|-------------------------------------------||--5-5-5-5-5-5-5---6-6-6-6-6-6-6------------||--5-5-5-5-5-5-5---5-5-5-5-5-5-5------------||-------------------------------------------||-------------------------------------------||-------------------------------------------|
|-------------------------------------------||--5-5-5-5-5-5-5---6-let ring wawah effect--||--5-5-5-5-5-5-5---5-let ring wawah effect--||-------------------------------------------||-------------------------------------------||-------------------------------------------|
zéér accuraat vragen : Kristof_reynders@msn.com ENJOY!
Please rate this tab:
x1.0