A Day To Remember - Im Made Of Wax Larry What Are You Made Of tab

----------------------------------------------------------------------------
    I'M MADE OF WAX, LARRY, WHAT ARE YOU MADE OF? by A DAY TO REMEMBER
                        on the HOMESICK album
----------------------------------------------------------------------------

TUNING: Drop C (CGCFAD)

Tab by AsILayDying504

.  palm mute
~  hold note
\  slide down
/  slide up
x  mute string
*  harmonic (natural)



INTRO:

D|-----------------------------------------------------------------------|
A|-----------------------------------------------------------------------|
F|-----------------------------------------------------------------------|
C|--7777777777777777-3333333333333333-10101010101010101010101010101010---|
G|--7777777777777777-3333333333333333-10101010101010101010101010101010---|
C|--7777777777777777-3333333333333333-10101010101010101010101010101010---|

D|-------(Guitar 1)-------|     D|-----(Guitar 2)-----|
A|------------------------|     A|--------------------|
F|------------------------|     F|--------------------|
C|------------pickslide---|     C|---55555555555555---|
G|--55555555--x\\\\\\\\\--|     G|---55555555555555---|
C|--55555555--x\\\\\\\\\--|     C|---55555555555555---|
    ........                                      

VERSE:

Guitar 1

D|-------------------------------------------------------------------------|
A|-------------------------------------------------------------------------|
F|--5-5---5-5-5---5-10-10---10-9-9---4-4-4---4-4-4---4-10-10---10-12-12----|
C|--x-x---x-x-x---x-x--x----x--x-x---x-x-x---x-x-x---x-x--x----x--x--x-----|
G|--3-3---3-3-3---3-8--8----8--7-7---2-2-2---2-2-2---2-8--8----8--10-10----|
C|-------------------------------------------------------------------------|

D|-------------------------------------------------------------------------|
A|-------------------------------------------------------------------------|
F|--9-9-9---9-9-9---5-5-5---5-5-5---7--7---7-7-7---4-4-4---4-4-5-4-2-------|
C|--x-x-x---x-x-x---x-x-x---x-x-x---x--x---x-x-x---x-x-x---x-x-x-x-2-------|
G|--7-7-7---7-7-7---3-3-3---3-3-3---5--5---5-5-5---2-2-2---2-2-3-2-0-------|
C|-------------------------------------------------------------------------|


Guitar 2

D|-------------------------------------------------------------------------|
A|-------------------------------------------------------------------------|
F|--9-9-999-999-999-888-888-888-888-555-555-555-555-4-4-444-444-444--------|
C|--7-7-777-777-777-666-666-666-666-333-333-333-333-2-2-222-222-222--------|
G|--7-7-777-777-777-666-666-666-666-333-333-333-333-2-2-222-222-222--------|
C|--7-7-777-777-777-666-666-666-666-333-333-333-333-2-2-222-222-222--------|


PRECHORUS:

D|-----------------------------------------------|
A|-----------------------------------------------|
F|-----------------------------------------------|
C|-777-10101010-666666666-33333333-66666666------|
G|-777-10101010-666666666-33333333-66666666------|
C|-777-10101010-666666666-33333333-66666666------|

D|---------------------------------|-(Guitar 1)-|-(Guitar 2)-|
A|---------------------------------|------------|------------|
F|---------------------------------|-----13~----|------------|
C|-777-10101010-666666666-33333333-|-----16b----|------------|
G|-777-10101010-666666666-33333333-|------------|--66666666--|
C|-777-10101010-666666666-33333333-|------------|--66666666--|
                                                   ........

CHORUS:

Guitar 1

D|----------------------------------------------------------------------|
A|----------------------------------------------------------------------|
F|--------------------------5-5-5-5--------------------------5-5-5-5----|
C|--5-7-7-5-7-7-5-7-7-5-7-7----------5-7-7-5-7-7-5-7-7-5-7-7------------|
G|----------------------------------------------------------------------|
C|----------------------------------------------------------------------|

D|-------------------------------------------------------------------------|
A|-------------------------------------------------------------------------|
F|--10-10-10-9-9-9-7-7-7-5-5-5-5-5-5-5-4-4-4-5-5-5-7-7-7-9-9-9-9-10-9------|
C|--x--x--x--x-x-x-x-x-x-x-x-x-x-x-x-x-x-x-x-x-x-x-x-x-x-x-x-x-x-x--x------|
G|--8--8--8--7-7-7-5-5-5-3-3-3-3-3-3-3-2-2-2-3-3-3-5-5-5-7-7-7-7-8--7------|
C|-------------------------------------------------------------------------|


Guitar 2

D|-----------------------------------------------------------------------|
A|-----------------------------------------------------------------------|
F|-----------------------------------------------------------------------|
C|--7777777777777777-3333333333333333-10101010101010101010101010101010---|
G|--7777777777777777-3333333333333333-10101010101010101010101010101010---|
C|--7777777777777777-3333333333333333-10101010101010101010101010101010---|

D|---------------------|
A|---------------------|
F|---------------------|
C|--5555555555555555---|
G|--5555555555555555---|
C|--5555555555555555---|


PRE-VERSE:

D|------------------------|
A|------------------------|
F|---------------5*-------|
C|--77-777-777------------|
G|--77-777-777------------|
C|--77-777-777------------|


VERSE:

Guitar 1

D|-------------------------------------------------------------------------|
A|-------------------------------------------------------------------------|
F|--5-5---5-5-5---5-10-10---10-9-9---4-4-4---4-4-4---4-10-10---10-12-12----|
C|--x-x---x-x-x---x-x--x----x--x-x---x-x-x---x-x-x---x-x--x----x--x--x-----|
G|--3-3---3-3-3---3-8--8----8--7-7---2-2-2---2-2-2---2-8--8----8--10-10----|
C|-------------------------------------------------------------------------|

D|-------------------------------------------------------------------------|
A|-------------------------------------------------------------------------|
F|--9-9-9---9-9-9---5-5-5---5-5-5---7--7---7-7-7---4-4-4---4-4-5-4-2-------|
C|--x-x-x---x-x-x---x-x-x---x-x-x---x--x---x-x-x---x-x-x---x-x-x-x-2-------|
G|--7-7-7---7-7-7---3-3-3---3-3-3---5--5---5-5-5---2-2-2---2-2-3-2-0-------|
C|-------------------------------------------------------------------------|


Guitar 2

D|-------------------------------------------------------------------------|
A|-------------------------------------------------------------------------|
F|--9-9-999-999-999-888-888-888-888-555-555-555-555-4-4-444-444-444--------|
C|--7-7-777-777-777-666-666-666-666-333-333-333-333-2-2-222-222-222--------|
G|--7-7-777-777-777-666-666-666-666-333-333-333-333-2-2-222-222-222--------|
C|--7-7-777-777-777-666-666-666-666-333-333-333-333-2-2-222-222-222--------|


PRECHORUS:

D|-----------------------------------------------|
A|-----------------------------------------------|
F|-----------------------------------------------|
C|-777-10101010-666666666-33333333-66666666------|
G|-777-10101010-666666666-33333333-66666666------|
C|-777-10101010-666666666-33333333-66666666------|

D|---------------------------------|-(Guitar 1)-|-(Guitar 2)-|
A|---------------------------------|------------|------------|
F|---------------------------------|-----13~----|------------|
C|-777-10101010-666666666----------|-----16b----|------------|
G|-777-10101010-666666666-33333333-|------------|--66666666--|
C|-777-10101010-666666666-33333333-|------------|--66666666--|
                          ........

CHORUS:

Guitar 1 (x2)

D|----------------------------------------------------------------------|
A|----------------------------------------------------------------------|
F|--------------------------5-5-5-5--------------------------5-5-5-5----|
C|--5-7-7-5-7-7-5-7-7-5-7-7----------5-7-7-5-7-7-5-7-7-5-7-7------------|
G|----------------------------------------------------------------------|
C|----------------------------------------------------------------------|

D|-------------------------------------------------------------------------|
A|-------------------------------------------------------------------------|
F|--10-10-10-9-9-9-7-7-7-5-5-5-5-5-5-5-4-4-4-5-5-5-7-7-7-9-9-9-9-10-9------|
C|--x--x--x--x-x-x-x-x-x-x-x-x-x-x-x-x-x-x-x-x-x-x-x-x-x-x-x-x-x-x--x------|
G|--8--8--8--7-7-7-5-5-5-3-3-3-3-3-3-3-2-2-2-3-3-3-5-5-5-7-7-7-7-8--7------|
C|-------------------------------------------------------------------------|


Guitar 2 (x2)

D|-----------------------------------------------------------------------|
A|-----------------------------------------------------------------------|
F|-----------------------------------------------------------------------|
C|--7777777777777777-3333333333333333-10101010101010101010101010101010---|
G|--7777777777777777-3333333333333333-10101010101010101010101010101010---|
C|--7777777777777777-3333333333333333-10101010101010101010101010101010---|

D|---------------------|
A|---------------------|
F|---------------------|
C|--5555555555555555---|
G|--5555555555555555---|
C|--5555555555555555---|


BREAKDOWN:

D|----------------------------------------------|
A|----------------------------------------------|
F|----------------------------------------------|
C|--7-7-7----7-7-7----7~------------------------|
G|--7-7-7----7-7-7----7~----7-7-7-3-3-3-3-6-6---|
C|--7-7-7----7-7-7----7~----7-7-7-3-3-3-3-6-6---|
                            . . . . . . . . .

D|-------------------------------------------------------------------------|
A|-------------------------------------------------------------------------|
F|-------------------------------------------------------------------------|
C|--7-7-7-10-10-10-10-6-6-6-6-6-6-6-6-6--7-7-7-3-3-3-3-6-6-6-6-6-6-6-6-6---|
G|--7-7-7-10-10-10-10-6-6-6-6-6-6-6-6-6--7-7-7-3-3-3-3-6-6-6-6-6-6-6-6-6---|
C|--7-7-7-10-10-10-10-6-6-6-6-6-6-6-6-6--7-7-7-3-3-3-3-6-6-6-6-6-6-6-6-6---|

D|-------------------------------------------------------------------------|
A|-------------------------------------------------------------------------|
F|-------------------------------------------------------------------------|
C|--7-7-7-10-10-10-10-6-6-6-6-6-6-6-6-6--7-7-7-3-3-3-3-6-6-6-6-6-6-6-6-6---|
G|--7-7-7-10-10-10-10-6-6-6-6-6-6-6-6-6--7-7-7-3-3-3-3-6-6-6-6-6-6-6-6-6---|
C|--7-7-7-10-10-10-10-6-6-6-6-6-6-6-6-6--7-7-7-3-3-3-3-6-6-6-6-6-6-6-6-6---|


Guitar 1

D|-----------------------------------------------------------------------|
A|-----------------------------------------------------------------------|
F|-----------------------------------------------------------------------|
C|-----------------------------------------------------------------------|
G|-----------------------------------------------------------------------|
C|-7-7-7-/-10-10-10-\-6-6-6-\-2-2-2-2-7-7-7-\-3-3-3-/-6-6-6-\-2-2-2-2---|


Guitar 2

D|--------------------------------------------------------|
A|--------------------------------------------------------|
F|--------------------------------------------------------|
C|--------------------------------------------------------|
G|--7-7--10-10--6-6--22222222---7-7--3-3--6-6--22222222---|
C|--7-7--10-10--6-6--22222222---7-7--3-3--6-6--22222222---|
    . .  .  .   . .  ........   . .  . .  . .  ........

(then both play...)

D|--------------------------------------------------------|
A|--------------------------------------------------------|
F|--------------------------------------------------------|
C|--------------------------------------------------------|
G|--7-7~-10-10~-6-6~-22222222---7-7~-3-3~-6-6~-22222222---|
C|--7-7~-10-10~-6-6~-22222222---7-7~-3-3~-6-6~-22222222---|
    . .  .  .   . .  ........   . .  . .  . .  ........


CHORUS:

Guitar 1 (x2)

D|----------------------------------------------------------------------|
A|----------------------------------------------------------------------|
F|--------------------------5-5-5-5--------------------------5-5-5-5----|
C|--5-7-7-5-7-7-5-7-7-5-7-7----------5-7-7-5-7-7-5-7-7-5-7-7------------|
G|----------------------------------------------------------------------|
C|----------------------------------------------------------------------|

D|-------------------------------------------------------------------------|
A|-------------------------------------------------------------------------|
F|--10-10-10-9-9-9-7-7-7-5-5-5-5-5-5-5-4-4-4-5-5-5-7-7-7-9-9-9-9-10-9------|
C|--x--x--x--x-x-x-x-x-x-x-x-x-x-x-x-x-x-x-x-x-x-x-x-x-x-x-x-x-x-x--x------|
G|--8--8--8--7-7-7-5-5-5-3-3-3-3-3-3-3-2-2-2-3-3-3-5-5-5-7-7-7-7-8--7------|
C|-------------------------------------------------------------------------|


Guitar 2 (x2)

D|-----------------------------------------------------------------------|
A|-----------------------------------------------------------------------|
F|-----------------------------------------------------------------------|
C|--7777777777777777-3333333333333333-10101010101010101010101010101010---|
G|--7777777777777777-3333333333333333-10101010101010101010101010101010---|
C|--7777777777777777-3333333333333333-10101010101010101010101010101010---|

D|---------------------|
A|---------------------|
F|---------------------|
C|--5555555555555555---|
G|--5555555555555555---|
C|--5555555555555555---|


OUTRO:

Guitar 1

D|---------------------------------------|
A|---------------------------------------|
F|--------------------------5-5-5-5------|
C|--5-7-7-5-7-7-5-7-7-5-7-7---------7\---|
G|----------------------------------7\---|
C|----------------------------------7\---|


Guitar 2

D|------------------------|
A|------------------------|
F|--2222222222222222------|
C|--2222222222222222-7\---|
G|--0000000000000000-7\---|
C|-------------------7\---|
Tap to rate this tab
 
# A B C D E F G H I J K L M N O P Q R S T U V W X Y Z