Song name
# A B C D E F G H I J K L M N O P Q R S T U V W X Y Z

A Day To Remember - Im Made Of Wax Larry What Are You Made Of tab

I know they play it in Drop C but THE LOWEST NOTE IS THE LOW D!!!
USE YOUR BRAIN SHOULD YOU HAVE TO TUNE DOWN A WHOLE STEP TO PLAY SOMETHING
YOU CAN PLAY IN DROP D? If you are already in Drop C Slide These chords up two frets
          ex e:- equals  e:-
             b:-         a:-
             g:-         f:-
             D:5         C:7
             A:5         G:7
             D:5         C:7

       ENJOY

Intro
e:----------------------------------------------------------------------|
b:----------------------------------------------------------------------|
g:------------------------------------3333333333333333------------------|
D:-55555555555555555-1111111111111111-3333333333333333-3333333333333333-|
A:-55555555555555555-1111111111111111-1111111111111111-3333333333333333-|
D:-55555555555555555-1111111111111111------------------3333333333333333-|

Verse 1

e:-----------------------------------------------------|
b:-----------------------------------------------------|
g:----------------------------------------55x55x-------|
D:-88x88x88x88x-77x77x77x77x-11x11x11x11x-55x55x-77x77-|
A:-55x55x55x55x-44x44x44x44x-11x11x11x11x-33x33x-77x77-|
D:-55x55x55x55x-44x44x44x44x-11x11x11x11x--------77x77-|

Pre Chorus 1

e:--------------------------------------|
b:--------------------------------------|
g:--------------------------------------|
D:-555-8888-44444444-111111111-44444444-|
A:-555-8888-44444444-111111111-44444444-|
D:-555-8888-44444444-111111111-44444444-|

e:--------------------------------------|
b:--------------------------------------|
g:--------------------------------------|
D:-555-8888-44444444-111111111-44444444-|
A:-555-8888-44444444-111111111-44444444-|
D:-555-8888-44444444-111111111-44444444-|
/:-----------------------------......---|

Chorus 1

e:----------------------------------------------------------------------|
b:----------------------------------------------------------------------|
g:------------------------------------3333333333333333------------------|
D:-55555555555555555-1111111111111111-3333333333333333-3333333333333333-|
A:-55555555555555555-1111111111111111-1111111111111111-3333333333333333-|
D:-55555555555555555-1111111111111111------------------3333333333333333-|

Pre-Versus

e:-------------2------|
b:--------------------|
g:-33x333x333x3-------|
D:-33x333x333x3-------|
A:-11x111x111x1-------|
D:--------------------|
               *
Verse 2

e:------------------------------------------------------|
b:------------------------------------------------------|
g:---------------------------33x33x33x33x-55x55x--------|
D:-88x88x88x88x-77x77x77x77x-33x33x33x33x-55x55x-77x77x-|
A:-55x55x55x55x-44x44x44x44x-11x11x11x11x-33x33x-77x77x-|
D:-55x55x55x55x-44x44x44x44x---------------------77x77x-|

Pre Chorus 2

e:--------------------------------------|
b:--------------------------------------|
g:--------------------------------------|
D:-555-8888-44444444-111111111-44444444-|
A:-555-8888-44444444-111111111-44444444-|
D:-555-8888-44444444-111111111-44444444-|

e:--------------------------------------|
b:--------------------------------------|
g:--------------------------------------|
D:-555-8888-44444444-111111111-44444444-|
A:-555-8888-44444444-111111111-44444444-|
D:-555-8888-44444444-111111111-44444444-|
/:-------------------.........-........-|

Chorus 2

e:----------------------------------------------------------------------|
b:----------------------------------------------------------------------|
g:------------------------------------3333333333333333------------------|
D:-55555555555555555-1111111111111111-3333333333333333-3333333333333333-|Play
A:-55555555555555555-1111111111111111-1111111111111111-3333333333333333-|2
D:-55555555555555555-1111111111111111------------------3333333333333333-|Time

Bridge

e:--------------------------------------------------------------|
b:--------------------------------------------------------------|
g:-----(bass-line)-----(bass-line)------------------------------|
D:-555-------------555-------------5~-----555-1111-44-----------|
A:-555-------------555-------------5~-----555-1111-44-----------|
D:-555-------------555-------------5~-----555-1111-44-----------|
                                          ... .... ..

Breakdown

e:---------------------------------------|
b:---------------------------------------|
g:---------------------------------------|
D:-555-8888-444444444-555-1111-444444444-| play twice
A:-555-8888-444444444-555-1111-444444444-|
D:-555-8888-444444444-555-1111-444444444-|

e:-----------------------------------------|
b:-----------------------------------------|
g:-----------------------------------------|
D:-----------------------------------------|
A:-----------------------------------------|
D:-555-8888-4444-00000-555-1111-4444-00000-|

e:-------------------------------------|
b:-------------------------------------|
g:-------------------------------------|
D:-55~-88~-44~-00000-55~-11~-44~-00000-|
A:-55~-88~-44~-00000-55~-11~-44~-00000-|
D:-55~-88~-44~-00000-55~-11~-44~-00000-|

Chorus 3

e:-------------------------------------------------------------------------|
b:-------------------------------------------------------------------------|
g:-------------------------------------3333333333333333--------------------|
D:-35-35-35-355-8888-1111111111111111-3333333333333333-3333333333333333----|
A:--------------------1111111111111111-1111111111111111-3333333333333333---|
D:--------------------1111111111111111------------------3333333333333333---|
    p hp hh hhp hhhh


e:----------------------------------------------------------------------|
b:----------------------------------------------------------------------|
g:------------------------------------3333333333333333------------------|
D:-55555555555555555-1111111111111111-3333333333333333-3333333333333333-|
A:-55555555555555555-1111111111111111-1111111111111111-3333333333333333-|
D:-55555555555555555-1111111111111111------------------3333333333333333-|

Outro

e:----------------------|
b:----------------------|
g:----------------------|
D:-35-35-35-355-8888--5-|
A:--------------------5-|
D:--------------------5-|
    p hp hp hhp hhhh

Key P: pull ogg
    H: Hammer On
    *:Pinch Harmoinic
    .: palm mute

enjoy MATTY B Comment and rate
Tap to rate this tab
# A B C D E F G H I J K L M N O P Q R S T U V W X Y Z