Song name
# A B C D E F G H I J K L M N O P Q R S T U V W X Y Z

A Perfect Circle - When The Levee Breaks tab

Band- A Perfect Circle
Song- When The Levee Breaks

-------------------------------------------------------------------------------
Standard tuning
(Played with the bass turned way up and mild distortion).
-------------------------------------------------------------------------------

e|--------------------------------------------------------------------------------|
B|--------2-------2-----------2-----------2-------2-------2--------------2------2-|
G|--------------------------------------------------------------------------------|
D|-----3--------3---3-------3---3-------3-------3-------3------3-------3------3---|
A|---3--------3-----------3-----------3-------3-------3-------3------3------3-----|
E|-2--------2-----------2-----------2-------2-------2-------2------2------2-------|

e|-----------------------------------------------------------------------------------------|
B|-------2-----------2-------2-------2-------2-------2-------2-----------2-------2-------2-|
G|-----------------------------------------------------------------------------------------|
D|-----3---3-------3-------3-------3-------3-------3-------3----3------3-------3-------3---|
A|---3-----------3-------3-------3-------3-------3-------3-----------3-------3-------3-----|
E|-2-----------2-------2-------2-------2-------2-------2-----------2-------2-------2-------|

e|----------------|
B|-------2------2-|
G|----------------|
D|-----3------3---|
A|---3------3-----|
E|-2------2-------|
-
e|-------2--------------------4-----------------------2------------|
B|---------2----------2---------4----------4------------2--------2-|
G|-----2-----2--------------4-----4-----------------2-----2--------| 
D|---2--------------2-----4--------------4--------2------------2---|
A|--------------2--------------------4-----------------------2-----|
E|-2--------------2-----4--------------4--------2------------------|


e|----------|
B|----------|
G|-----2----|
D|----------|
A|-2------2-|
E|----------|

e|-2-----------2---2---2-----|
B|---2---2-------2---2---2---|
G|-----2---2---------------2-| X7
D|-----------2---------------|
A|---------------------------|
E|---------------------------|

e|--------------------------------------------------------------------------------|
B|--------2-------2-----------2-----------2-------2-------2--------------2------2-|
G|--------------------------------------------------------------------------------|
D|-----3--------3---3-------3-----------3-------3-------3------3-------3------3---|
A|---3--------3-----------3-----------3-------3-------3-------3------3------3-----|
E|-2--------2-----------2-----------2-------2-------2-------2------2------2-------|

e|-------2--------------------4-----------------------2------------|
B|---------2----------2---------4----------4------------2--------2-|
G|-----2-----2--------------4-----4-----------------2-----2--------| 
D|---2--------------2-----4--------------4--------2------------2---|
A|--------------2--------------------4-----------------------2-----|
E|-2--------------2-----4--------------4--------2------------------|

e|----------------|
B|-------2------2-|
G|----------------|
D|-----3------3---|
A|---3------3-----|
E|-2------2-------|


e|-2-----------2---2---2-----|
B|---2---2-------2---2---2---|
G|-----2---2---------------2-| X7 Fade out as you reach the end.
D|-----------2---------------|
A|---------------------------|
E|---------------------------|
Tap to rate this tab
# A B C D E F G H I J K L M N O P Q R S T U V W X Y Z