Guitaretab - guitar tabs
Song name
# A B C D E F G H I J K L M N O P Q R S T U V W X Y Z

A Perfect Circle - Weak And Powerless tab

**************************************************************************************
   _____________________
  / A Perfect Circle   /
 / Weak And Powerless /  
/____________________/

Tuning  C# F# B E G# C#

 Intro
 Gtr. clean 
 Piano arr. for gtr. fade in.
|--14-14-14---14-|--14-14---14---14---14--|-14---14---14---14---14---14-|
|---x--x--x----x-|---x--x----x----x----x--|--x----x----x----x----x----x-|
|--10-10-10---10-|--10-10---10---10---10--|-10---10---10---10---10---10-|
|----------------|------------------------|-----------------------------|
|----------------|------------------------|-----------------------------|
|----------------|------------------------|-----------------------------|

|---(14)--14---14---14---14---14-|--14---14---14---14---14--|-14---14---14---14---14---14-|
|---(  )---x----x----x----x----x-|---x----x----x----x----x--|--x----x----x----x----x----x-|
|---(10)--10---10---10---10---10-|--10---10---10---10---10--|-10---10---10---10---10---10-|
|--------------------------------|--------------------------|-----------------------------|
|--------------------------------|--------------------------|-----------------------------|
|--------------------------------|--------------------------|-----------------------------|

|---(14)--14---14-14-14---14-|--14-14-14---14---14--|-14-14---14---14-14-14-|
|---(  )---x----x--x--x----x-|---x--x--x----x----x--|--x--x----x----x--x--x-|
|---(10)--10---10-10-10---10-|--10-10-10---10---10--|-10-10---10---10-10-10-|
|----------------------------|----------------------|-----------------------|
|----------------------------|----------------------|-----------------------|
|----------------------------|----------------------|-----------------------|

                              Verse
|---(14)-14---14-14-14---14-||--------------------|--------------------|
|---(  )--x----x--x--x----x-||--------------------|--------------------|
|---(10)-10---10-10-10---10-||--------------------|--------------------|
|---------------------------||--------------------|--------------------|
|---------------------------||---4-4--------------|---2-2--------------|
|---------------------------||--------------------|--------------------|

|------------------------|--------------|--------------------|
|------------------------|--------------|--------------------|
|------------------------|--------------|--------------------|
|------------------------|--------------|--------------------|
|---(2)-0-0--------------|--------------|---4-4--------------|
|------------------------|--------------|--------------------|

|------------------------|--------------|-(14)-14---14-14--------|
|------------------------|--------------|-(  )--x----x--x--------|
|------------------------|--------------|-(10)-10---10-10--------|
|------------------------|--------------|------------------------|
|---(4)-0-0--------------|--------------|------------------------|
|------------------------|---2-2--------|------------------------|

 Gtr. w/ delay
|---9---9---9-9-9---9-9-9--|-7---7---7-7-7-10-10---9-|
|--------------------------|-------------------------|
|--------------------------|-------------------------|
|--------------------------|-------------------------|
|--------------------------|-------------------------|
|--------------------------|-------------------------|

|---7-7---7-7------------|-----------------------|
|-------------9---9-9-9--|-9---9-9-9---9-9-9---9-|
|------------------------|-----------------------|
|------------------------|-----------------------|
|------------------------|-----------------------|
|------------------------|-----------------------|

                                                     Chorus
|Riff A                                  End Riff A||Riff B
|------------------------------|----9-9------------||-9-9---9-9-9-9-9-9-9-|
|---7-7-7-7-10-7-10-7-10-7-7-8-|--8-----8----------||---------------------|
|------------------------------|----------7--------||---------------------|
|------------------------------|-------------------||---------------------|
|------------------------------|-------------------||---------------------|
|------------------------------|-------------------||---------------------|

|---7---7-7-7-7-7-7-7-10---10-9-10-9--|-7-7-7-----------------------|
|-------------------------------------|-------7-7-7-7-7-7-7-7-7-7-7-|
|-------------------------------------|-----------------------------|
|-------------------------------------|-----------------------------|
|-------------------------------------|-----------------------------|
|-------------------------------------|-----------------------------|

                          End Riff B|
|-----------------------------------|-9-9-9-9-9-9-9-9-9-9-9-|-7-7-7-7-7-7-7-7-10-10-9-10-9-|
|---7-7-7-7-7-7-7-7-7-7-7-7-7-7-7-7-|-----------------------|------------------------------|
|-----------------------------------|-----------------------|------------------------------|
|-----------------------------------|-----------------------|------------------------------|
|-----------------------------------|-----------------------|------------------------------|
|-----------------------------------|-----------------------|------------------------------|
[ Tab from: http://www.guitaretab.com/a/a-perfect-circle/46202.html ]
                                                             Interlude 
                                                             Gtr. clean
|---7-7---------------------------|------------------------||--------------------|
|-------7---7-7-7-7-7-7-7-7-7-7---|---------7-7-7-7-7-7-7/-||--------------------|
|-------------------------------9-|-9-9-9------------------||--------------------|
|---------------------------------|------------------------||--------------------|
|---------------------------------|------------------------||---4-4--------------|
|---------------------------------|------------------------||--------------------|

|--------------------|---------------|--------------|--------------------|
|--------------------|---------------|--------------|--------------------|
|--------------------|---------------|--------------|--------------------|
|--------------------|---------------|--------------|--------------------|
|---(4)-2-2-2--------|---0-0-0-------|--------------|---4-4--------------|
|--------------------|---------------|--------------|--------------------|

|--------------------|----------------|--------------| |
|--------------------|----------------|--------------| |
|--------------------|----------------|--------------| |
|--------------------|----------------|--------------| |
|---(4)-0-0-0--------|---2-2-2--------|--------------| |
|--------------------|----------------|--------------| |

 Verse
|-------------------------|---------------|-----------------|
|-------------------------|---------------|-----------------|
|----------6--------------|---------------|--------4--------|
|------7-7----------------|--7-7-7--------|--7-7-7----------|
|-------------------------|---------------|-----------------|
|-------------------------|---------------|-----------------|

|-------------------------------|-----------------|---------------|
|-------------------------------|-----------------|---------------|
|------(4)-------4--------------|--------6--------|---------------|
|----------7-7-7----------------|--7-7-7----------|--7-7-7--------|
|-------------------------------|-----------------|---------------|
|-------------------------------|-----------------|---------------|

|-----------------------|---------------------|------------------------|
|-----------------------|---------------------|------------------------|
|-----------------------|---------------------|---------6--------------|
|------(7)-4-4-4--------|--4-4-4---4---4-(4)/-|---7-7-7----------------|
|-----------------------|---------------------|---0-0-0----------------|
|-----------------------|---------------------|------------------------|

|-----------------------|------------------|-------------------------| |
|-----------------------|------------------|-------------------------| |
|------(6)--------------|------------------|-------------------------| |
|----------7-7-7--------|------------------|--4---4-4---4---4---(4/)-| |
|------(0)-2-2-2--------|-----4-4-4--------|-------------------------| |
|-----------------------|---2-2-2----------|-------------------------| |

 Chorus
 Play Riff B.

 Play Riff A x2.

 Gtr. w/ dis.       Outro 
|-----------------||----------------------------------|---------------------------------|
|-----------------||----------------------------------|---------------------------------|
|-----------------||----------------------------------|---------------------------------|
|-----------------||--4-4-4-4-4-4-4-4-4-4-4-4-4-4-4-4-|-2-2-2-2-2-2-2-2-2-2-2-2-2-2-2-2-|
|-----------------||--x-x-x-x-x-x-x-x-x-x-x-x-x-x-x-x-|-x-x-x-x-x-x-x-x-x-x-x-x-x-x-x-x-|
|--------------7\-||--2-2-2-2-2-2-2-2-2-2-2-2-2-2-2-2-|-0-0-0-0-0-0-0-0-0-0-0-0-0-0-0-0-|

|------------------------------------|---------------------------------|
|------------------------------------|---------------------------------|
|------------------------------------|---------------------------------|
|---7-7-7-7-7-7-7-7-7-7-7-7-7--7-7-7-|-7-7-7-7-7-7-7-7-7-7-7-7-7-7-7-7-|
|---x-x-x-x-x-x-x-x-x-x-x-x-x--x-x-x-|-x-x-x-x-x-x-x-x-x-x-x-x-x-x-x-x-|
|---5-5-5-5-5-5-5-5-5-5-5-5-5--5-5-5-|-5-5-5-5-5-5-5-5-5-5-5-5-5-5-5-5-|

|---------------------------------|-----------------------------------|
|---------------------------------|-----------------------------------|
|---------------------------------|-----------------------------------|
|-4-4-4-4-4-4-4-4-4-4-4-4-4-4-4-4-|---2-2-2-2-2-2-2-2-2-2-2-2-2-2-2-2-|
|-x-x-x-x-x-x-x-x-x-x-x-x-x-x-x-x-|---x-x-x-x-x-x-x-x-x-x-x-x-x-x-x-x-|
|-2-2-2-2-2-2-2-2-2-2-2-2-2-2-2-2-|---0-0-0-0-0-0-0-0-0-0-0-0-0-0-0-0-|


|---------------------------------|----------------------------------|
|---------------------------------|----------------------------------|
|---------------------------------|----------------------------------|
|-7-7-7-7-7-7-7-7-7-7-7-7-7-7-7-7-|-9-9-9-9-9-9-9-9-9-9-9-9-9-9-9--9-|
|-x-x-x-x-x-x-x-x-x-x-x-x-x-x-x-x-|-x-x-x-x-x-x-x-x-x-x-x-x-x-x-x--x-|
|-5-5-5-5-5-5-5-5-5-5-5-5-5-5-5-5-|-7-7-7-7-7-7-7-7-7-7-7-7-7-7-7--7-|

|Riff C
|------------------------------------------|---------------------------------|
|------------------------------------------|---------------------------------|
|----------11b12r11------11b12r11----------|-----11b12r11~~~~~~~~~~~~~~~~~~~~|
|------------------------------------11----|---------------------------------|
|------------------------------------------|---------------------------------|
|------------------------------------------|---------------------------------|

                                                                              End Riff C|
|------------------------------------------|--------------------------------------------|
|------------------------------------------|-------------------12b13~~~~~~~~~~~~~~~~~~~~|
|----------11b12r11------11b12r11----------|-----11b12r11------14b15~~~~~~~~~~~~~~~~~~~~|
|------------------------------------11----|--------------------------------------------|
|------------------------------------------|--------------------------------------------|
|------------------------------------------|--------------------------------------------|

 Play Riff C.
Related for Weak And Powerless tab