Song name
# A B C D E F G H I J K L M N O P Q R S T U V W X Y Z

A Perfect Circle - Passive tab

Artist: A Perfect Circle
Album: eMOTIVE
Song: Passive

Intro
e---------------------------------------------|
B---------------------------------------------|
G--3--5-----------3----7------3--5-------------|  X2
D------------5------------------------3---2---|
A--1--------------1-----------1---------------|
E-------------------------------------1-------|

e------------------------------------------------------|
B------------------------------------------------------|
G-----5--------8\7-5h7-----------5---------------------|
D---5---------5---------------5-----------5h8----------|
A------------------------------------------------------|
E------------------------------------------------------|

e------------------------------------------------------|
B------------------------------------------------------|
G----5--------8\7-5h7---------5------------------------|
D--5--------5--------------5------------5----8---------|
A------------------------------------------------------|
E------------------------------------------------------|

Chorus
e-------------------------------------------------------|
B------10--------11p10-8h10-----------10----------------|
G---7-----------7------------------7-----------10-9-----|
D-------------------------------------------------------|
A-------------------------------------------------------|
E-------------------------------------------------------|

Verse 1
e--------------------------------------|
B---9\8--88-88-88--88--88-88-6h8-------|
G--------------------------------------|    X3
D--------------------------------------|
A--------------------------------------|
E--------------------------------------|

Verse 2
e-------------------------------------------------|
B---6-6-6-6-6-6-6-6/11-11-11-11-11-11-11-11-------|
G-------------------------------------------------| Than repeat from Verse 1
D-------------------------------------------------|
A-------------------------------------------------|
E-------------------------------------------------|

Bridge
e----------1---------------1-----------------------------------|
B------------2---------------2---------------------------------|
G------2---------------2---------------------------------------|
D---4----------------4-----------------------------------------|
A--------------------------------------------------------------|
E--------------------------------------------------------------|

Outro
e---------------------------------------------------|
B---11-13---10---8---6---11--10---8-----------------|
G---------------------------------------------------|
D---8--10---7----5---3---8---7----5-----------------|
A---------------------------------------------------|
E---------------------------------------------------|

I didnt tab out the rhtyhm for the outro just listen to the song.
Tap to rate this tab
 
# A B C D E F G H I J K L M N O P Q R S T U V W X Y Z