Song name
# A B C D E F G H I J K L M N O P Q R S T U V W X Y Z

A Perfect Circle - Passive chords

Highlighted       Show chord diagrams
A Perfect Circle - Passive

     Gm         Bb       F       C
e|-----------------------------------------------------------------------------|
B|-----------------3--------1--------------------------------------------------|
G|---3--5-------3--------3-----------------------------------------------------|
D|-------------------------------3--2------------------------------------------|
A|--------------1----------------3---------------------------------------------|
E|---3------3------------1-----------------------------------------------------|


Gm
“Dead as dead can be,” my doctor tells me
Gm                         F            Bb         Gm
But I just can’t believe him, never the optimistic one
                                F     Bb 
I’m sure of your ability to become my perfect enemy

Gm          Bb             F               C
Wake up and face me, don’t play dead cause maybe
Gm             Bb                F                     C
Someday I will walk away and say, “You disappoint me,”

Maybe you’re better off this way


Gm
Leaning over you here, cold and catatonic
Gm                        F            Bb                   Gm
I catch a brief reflection of what you could and might have been
                                      F       Bb
It's your right and your ability to become my perfect enemy


Gm                          Bb             
Wake up (why can't you) and face me (come one now),
      F                                 C
Don’t play dead (don't play dead) cause maybe (because maybe)
Gm                          Bb                F                    C
Someday I’ll (someday I'll) walk away and say, “You disappoint me,”
                             Gm
Maybe you’re better off this way


Bb                           Gm         
Maybe you’re better off this way
Bb                           Gm 
Maybe you’re better off this way
Bb                           Gm 
Maybe you’re better off this way
Bb                     Gm 
You’re better of this; you’re better off this;
Bm
Maybe you’re better off!



Gm                      Bb 
Wake up (can't you) and face me (come on now),
      F                                 C
Don’t play dead (don't play dead) cause maybe (because maybe)
Gm                          Bb                  F                           C
Someday I’ll (someday I'll) walk away and say, “You fucking disappoint me!”
                             Gm
Maybe you’re better off this way



Go ahead and play dead
Bb
I know that you can hear this
F
Go ahead and play dead
C
Why can't you turn and face me?
Gm
Why can't you turn and face me?
Bb
Why can't you turn and face me?
F
Why can't you turn and face me?
C
You fucking disappoint me!


Passive aggressive bullshit 


     Gm         Bb       F       C
e|-----------------------------------------------------------------------------|
B|-----------------3--------1--------------------------------------------------|
G|---3--5-------3--------3-----------------------------------------------------|
D|-------------------------------3--2------------------------------------------|
A|--------------1----------------3---------------------------------------------|
E|---3------3------------1-----------------------------------------------------|
Tap to rate this tab
# A B C D E F G H I J K L M N O P Q R S T U V W X Y Z