Song name
# A B C D E F G H I J K L M N O P Q R S T U V W X Y Z

A Static Lullaby - Stand Up tab

e-------------------------------------------------------------|
b-------------------------------------------slow-bend---------|
g-----7-9-9b-7----12-12-12-12-12-------7-9b-7-9b--------------|
d-7-9-------------12-12-12-12-12---7-9------------------------|
a-----------------10-10-10-10-10------------------------------|
E-------------------------------------------------------------|


e------------------------------------------------------------|
b-------------------------------slow-bend--------------------|
g--12-12-12-12-12--------7-9-9b-7-9b----14-12-11-12-11-------|
d--12-12-12-12-12----7-9-------------------------------------|
a--10-10-10-10-10--------------------------------------------|
E------------------------------------------------------------|


e--------------------------------------------------------|
b----------------slow-bend-------------------------------|
g------7-9-9b-7-9b---------------------------------------|
d--7-9-----------------------9-9-7-7/9--8-8-6/5----------|
a----------------------------9-9-7-7/9--8-8-6/5----------|
E----------------------------7-7-5-5/7--6-6-4/3----------|
                             '                   '
                             '-im not sure about-'
                                 this part
Tap to rate this tab
# A B C D E F G H I J K L M N O P Q R S T U V W X Y Z