Guitaretab - guitar tabs
Song name
# A B C D E F G H I J K L M N O P Q R S T U V W X Y Z

A Static Lullaby - Let Go tab

intro/chorus both guitars

e|-----------------------------------------------------|
B|-----------------------------------------------------|
G|-----------------------------------------------------|
D|-----------------------------------------------------|
A|-----5555-3333-00000-11-0000-1111-3333-0000----------|
D|--000----------------------------------------3333333-|

(continued)
e|--------------------------------------------------------------|
B|--------------------------------------------------------------|
G|--------------------------------------------------------------|
D|--------------------------------------------------------------|
A|-----5555-3333-00000-11-0000-1111-3333-0000-333333------------|
D|--000-----------------------------------------------33-22-00--|

verse both guitars
[ Tab from: http://www.guitaretab.com/a/a-static-lullaby/163724.html ]
e|--------------------------------------------------------------|
B|--------------------------------------------------------------|
G|--------------------------------------------------------------|
D|--555-555-55-55-55--222-222-22-22-22--------------------------|
A|--555-555-55-55-55--222-222-22-22-22--------------------------|
D|--555-555-55-55-55--222-222-22-22-22--------------------------|
    ..  ..  .  .  .   ..  ..  .  .  .

pre-chorus both guitars
e|--------------------|
B|--------------------|
G|--------------------|
D|---5~--7~--8~--10~--|
A|---5~--7~--8~--10~--|
D|---5~--7~--8~--10~--|

e|---------------------------------------------------|
B|---------------------------------------------------|
G|---------------------------------------------------|
D|---55555555--77777777--88888888--1010101010101010--|
A|---55555555--77777777--88888888--1010101010101010--|
D|---55555555--77777777--88888888--1010101010101010--|

then chorus again both guitars

then both guitars
e|---------------------|
B|---------------------|
G|---------------------|
D|---0~--10~--0~--10~--|
A|---0~--10~--0~--10~--|
D|---0~--10~--0~--10~--|

then pre-chorus again

then chorus until end and your done

this tab might not be 100% accurate but its atleast 80% lol
let me know what you think

here the keys

. = palm mute
~ = let it ring
Related for Let Go tab