Song name
# A B C D E F G H I J K L M N O P Q R S T U V W X Y Z

Aaron Shearer - Prelude No 6 tab

-------------------------------------------------------------------------------
			     Prelude No.6 - Aaron Shearer
-------------------------------------------------------------------------------
Tabbed by:NSNF
Email:indradion@yahoo.com

Tuning:Standard
From the book "Classic Guitar Technique Volume 1" (Copyright1959,1963,2009)
*This piece would sound a little better using arpeggios; not picks(classical).

e|-----0----------0------------------------0------------0-----0-1-3-1--------|
B|-1-3-------1--------1-01-3----0---3---013-------1--------------------------|
G|---------------------------------------------------------------------------|
D|---------------------------------------------------------------------------|
A|-------00---00---00-------------------------00----00----00-----------------|
E|----------------------------00--00--00-------------------------------------|

e|--------------1--------1-3-1-0---------------0-----------------------------|
B|------3------------------------------1-------------1-0-1-3-----0--------1--|
G|---------------------------------------------------------------------------|
D|--00-----00-------00-------------------------------------------------------|
A|----------------------------------00-----00-----00-------------------------|
E|------------------------------------------------------------00-------00----|

e|---------------------------------------------------------------------------|
B|---------------------------------------------------------------------------|
G|---------2-----------------------------------------------------------------|
D|---------------------------------------------------------------------------|
A|-----00--------------------------------------------------------------------|
E|---------------------------------------------------------------------------|

Tap to rate this tab
 
# A B C D E F G H I J K L M N O P Q R S T U V W X Y Z