Song name
# A B C D E F G H I J K L M N O P Q R S T U V W X Y Z

Ac Dc - Cyberspace tab

AC/DC - Cyberspace

Tabbed by MadJack94

Intro
   A                       D
|---------------------------------------------------------------|
|--------------------------3------------------------------------|
|--2-----------------------2--------2-----------------------2---|
|--2-----------------------0--------2-----------------------2---|
|--0-0-3-0---0-3-0---0-3------------0--0-3-0---0-3-0---0-3--0---|
|----------3-------3-------------------------3-------3----------| Play twice

Chorus    
       E              G    A            G  A  D
|----------------|----------------|---------------|
|----------------|----------------|-----------3---|
|----------------|----------------|--------2--2---|
|------2---------|----5----2------|-----5--2--0---|
|------2---------|----5----2------|-----5--0------|
|------0---------|----3----0------|-----3---------|

Solo is on the way!

Listen to the song on YouTube for timing. Go to http://www.youtube.com/watch?v=jM-8BuUgq58
Tap to rate this tab
# A B C D E F G H I J K L M N O P Q R S T U V W X Y Z