Song name
# A B C D E F G H I J K L M N O P Q R S T U V W X Y Z

Ac Dc - Fly On The Wall tab

AC/DC - Fly on the wall (1985)

Tuning: Standart
Mail: degot@bk.ru

x - muted note

Intro
e|--------------------------------------------------------|
B|--------------------------------------------------------|
G|--2-------2---------------------------------------------|
D|--2-------2---------------------------------------------|
A|--0---4p3p0(let_ring)-----------------------------------|
E|--------------------------------------------------------| once

e|-------333--222--333-------------------------------------------------------|
B|-------333--333--333-------------------------------------------------------|
G|--222--000--222--000-------------------------------------------------------|
D|--222--000--000--000-------------------------------------------------------|
A|--000--xxx-------xxx-------------------------------------------------------|
E|-------333-------333-------------------------------------------------------| once
Then play these 2 together (Angus and Mal) x5

Main theme
e|-------------3-------------|    |-------333--222--333----------------------|
B|-------------3-------------|    |-------333--333--333----------------------|
G|-2-----------0-------------|    |--222--000--222--000----------------------|
D|-2-----------0-------------|    |--222--000--000--000----------------------|
A|-0(let_ring)-x(let_ring)---|    |--000--xxx-------xxx----------------------|
E|-------------3-------------|x2  |-------333-------333----------------------|x4


                                                                             
                                                                                |
Chorus                                                                          |
I was trapped...   like a fly on the wall...  I was caged... like a zoo animal / \
e|-------------------3--2--3--2-3------------------------------3--2--3--2-3----2-3--------|
B|-------------------3--3--3--3-3------------------------------3--3--3--3-3----3-3--------|
G|----------------2--0--2--0--2-0---------------------------2--0--2--0--2-0----2-3--------|
D|----------------2--0--0--0--0-0---------------------------2--0--0--0--0-0----0-0--------|
A|----------------0--x-----x----x(let_ring)-----------------0--x-----x----x------x--------|
E|-------------------3-----3----3------------------------------3-----3----3------3--------|x2

Then main there,
then chorus again,
then few G and A chords and solo,


h - hammer-on
p - pull-off
+ - harmonic note
^ - 1/2 bend
^^ - full bend ( +^^ means bend harmonic note)
~ - vibrato
\ - slide


Solo                                                     [Half_muted_notes]
e|------5+^^-----------------------------------------------------------------------5------------|
B|------------5+x-------------------------------9---9~-----------------------8^^-8--------------|
G|--------------x-5+-5~~\--5^-------------7^^-7^--7^---------------5x-x-7p5---------------------|
D|---------------------------7p5h7x7+~\------------------5x-xx-7x-------------------------------|
A|----------------------------------------------------------------------------------------------|
E|----------------------------------------------------------------------------------------------|

      <------------Fast--------------------------------------------------------------------------|
e|----5h8p7p5-5h7p5-------------------5+-------------------15----15----15----15------------------|
B|-----------------8--5h8p7p5-5h7p5------------------15^^----15^^--15^^--15^^--15^^-15p13--------|
G|---------------------------------7-----7+^7p5+-----------------------------------------14^-14~~|
D|-----------------------------------------------------------------------------------------------|
A|-----------------------------------------------------------------------------------------------|
E|-----------------------------------------------------------------------------------------------|

                                                     <--------Fast-------------------------------|
e|---------10-10-----10-10----10---10---10---10------10-------------------------10---10-10--10---|
B|----13^^-------13^^-------13---13---13---13---13^^---13p12p10-13p12p10----9^^---9^^---9^^-9^^--|
G|----------------------------------------------------------------------12-----------------------|
D|-----------------------------------------------------------------------------------------------|
A|-----------------------------------------------------------------------------------------------|
E|-----------------------------------------------------------------------------------------------|

Then play chorus x2

Couple of G and A chords and thats it!
Tap to rate this tab
 
# A B C D E F G H I J K L M N O P Q R S T U V W X Y Z