Song name
# A B C D E F G H I J K L M N O P Q R S T U V W X Y Z

Ac Dc - The Honey Roll tab

Title: The Honey Roll
Artist:AC/DC 
Album: Ballbreaker

The intro was taken off "http://www.ultimate-guitar.com/tabs/a/ac_dc/the_honey_roll_intro_tab.htm"
e|---------------------------------------------|
b|---------------------------------------------|
g|---------------------------------------------|
D|----------2--------------2-------------------|
A|-----1h2------------1h2----------------------|
E|-------------------------------3--2--0-------|

e|------------------------------------------------------------------|
b|------------------------------------------------------------------|
g|---------------------------------------------------------------2--|
D|----2---------2----------------------------------2-------------2--|
A|--------1h2-------------------7----------1h2-------------------0--|
E|-----------------------4h5--------------------------------\4------|

e|------------------------------------------------------------------|
b|------------------------------------------------------------------|
g|-----------------------------2------------------------------------|
D|--2-2-------2---2-2--5-7-5-2-2------------------------------------|
A|--2-2-------2---2-2--5-7-5-2-0------------------------------------|
E|--0-0---3-2-0---0-0--3-5-3-0--------------------------------------|

e|------------------------------------------------------------------|
b|------------------------------------------------------------------|
g|------2-2-2-------------------------------------------------------|
D|--5-5-2-2-2-Repeat-----4-4-4-5------------------------------------|
A|--5-5-0-0-0------------4-4-4-5------------------------------------|
E|--3-2------------------2-2-2-3------------------------------------|

e|-------------------------------------------------------------------------------|
b|-------------------------------------------------------------------------------|
g|----------------------------------------------------------------------------2--|
D|---2-2-----2-----2---------2----------------------------------2-------------2--|
A|---2-2-----2---------1h2-------------------7----------1h2-------------------0--|
E|---0-0-3-2-0--------------------------4h5------------------------------\4------|

e|---------------------------------------------|
b|---------------------------------------------|
g|---------------------------------------------|
D|----------2--------------2-------------------|
A|-----1h2------------1h2----------------------|
E|-------------------------------3--2--0-------|

e|------------------------------------------------------------------|
b|------------------------------------------------------------------|
g|---------------------------------------------------------------2--|
D|----2---------2----------------------------------2-------------2--|
A|--------1h2-------------------7----------1h2-------------------0--|
E|-----------------------4h5--------------------------------\4------|
Tap to rate this tab
# A B C D E F G H I J K L M N O P Q R S T U V W X Y Z