Song name
# A B C D E F G H I J K L M N O P Q R S T U V W X Y Z

Ace Enders And A Million Different People - Where Do We Go From Here tab

Band: Ace Enders & A Million Different People
Song: Where Do We Go From Here
Album: When I Hit The Ground
Tabbed By: Matt Florio; myspace.com/mattflorio2
Email: Shempashland@yahoo.com

"Where Do We Go From Here" is a song written by Ace Enders from The Early November and I 
Make A Mess Like Nobody's Business. This is one of my favorite songs from the album... 
epic!
This is pretty accurate, but if you have any comments, questions, or anything at all 
contact me. Thanks for checking this out!

Tuning: Guitar 1 & 2 in Drop D
        Guitar 3 in Standard

Chords
Dsus  xx0230
Asus  5x0450
Gsus  3x0230
G     320033
D     xx0232
Bm    7x0670
F     133211

Guitar 1 & 2 are related to the CD version of the song
Guitar 3 is just an acoustic way of playing the song; I figured it out this way and it sounds nice

Intro
*the ~ sign means hold
Guitar 1
e---------------------2~--------|
b---------------------3~--------|
g---------------------2~--------|
d-----3~------5~------0~--------|
a-----3~------5~------0~--------|
d-----3~------5~------0~--------|

Guitar 2
*this guitar can play those chords as well
Here are two ways to play this part:
e-----------------------------|------------------------------|
b----2/4-4---------2----------|------------------------------|
g------------4-5-5----5-4-----|------------------------------|
d-----------------------------|--7h9-9p7-------7-------------|
a-----------------------------|-----------9-10--10-9---------|
d-----------------------------|------------------------------|

then the second guitar does this part at the end of the second time:
this * means harmonics
e------------------------------|
b----7*---------7*-------------|
g----7*---------7*-------------|
d----7*----9*---7*-------------|
a----7*----9*------------------|
d------------------------------|

Guitar 3
e-----1~------3~------2~---------------|
b-----1~------3~------3~---------------|
g-----2~------0~------2~---------------|
d-----3~------0~------0~---------------|
a-----3~------2~-----------------------|
e-----1~------3~-----------------------|

Then repeat but this time leave out the harmonics part and end the chords like this:
        Guitar 3         Guitar 1   no Guitar 2
e----1~------3~---|-e------------------|
b----1~------3~---|-b------------------|
g----2~------0~---|-g------------------|
d----3~------0~---|-d---3~----5~-------|
a----3~------2~---|-a---3~----5~-------|
e----1~------3~---|-d---3~----5~-------|

Verse
Guitar 1
e-----------------------------------------------|
b-----------------------------------------------|
g-----------------------------------------------|
d---3-3--3-3---3-3--3-3---5-5--5-5---5-5--5-5---|
a---3-3--3-3---3-3--3-3---5-5--5-5---5-5--5-5---|
d---3-3--3-3---3-3--3-3---5-5--5-5---5-5--5-5---|

Guitar 2
*these parts when vocals come in.. usually heard after chords
e--------------------|------------|-------------|--------------|
b-------6b-7---------|------------|-------------|----7*--------|
g-----7-----9--------|------9--7--|-------------|----7*--------|
d-7-9---------9-7----|--7-9-------|----9p7--0---|----7*---9*---|
a--------------------|------------|-------------|---------9*---|
e--------------------|------------|-------------|--------------|

Guitar 3
e---0-0--0-0---0-0--0-0---0-0--0-0---0-0--0-0---|
b---3-3--3-3---3-3--3-3---5-5--5-5---5-5--5-5---|
g---2-2--2-2---2-2--2-2---4-4--4-4---4-4--4-4---|
d---0-0--0-0---0-0--0-0---0-0--0-0---0-0--0-0---|
a---x-x--x-x---x-x--x-x---x-x--x-x---x-x--x-x---|
e---3-3--3-3---3-3--3-3---5-5--5-5---5-5--5-5---|

Pre Chorus
Guitar 1
e---------------------------------|
b---------------------------------|
g-----7---------------------------|
d-----5---------------------------|
a-----5---------------------------|
d-----5---------------------------|
Palm Muted

Guitar 2
e---5555555--------------|
b---7777888--------------|
g---7777777--------------|
d------------------------|
a------------------------|
d------------------------|

This part you hear before the chorus comes in.
I am not too sure what he does so I do it this way using harmonics
e---------------------------|
b---------------------------|
g-----7*7*7*7*--------------|
d-----7*7*7*7*---12*--------|
a-----7*7*7*7*---12*--------|
d----------------12*--------|

Guitar 3
e------0--------------------------|
b------3--------------------------|
g------2--------------------------|
d------0--------------------------|
a------x--------------------------|
e------3--------------------------|
Palm Muted

Chorus
Guitar 1
e-0000000000000000-5555555555555555-0000000000000000-0-0-0-0-0-0-0-0-0-0-0-0-0-0-0-0----|
b-7777888877778888-7777888877778888-000000000000000010101010101010101010101010----------|
g-7777777777777777-7777777777777777-7777777777777777-9-9-9-9-9-9-9-9-9-9-9-9-9-9-9-9----|
d-0000000000000000-5555555555555555-0000000000000000-7-7-7-7-7-7-7-7-7-7-7-7-7-7-7-7----|
a-0000000000000000-5555555555555555-9999999999999999-7-7-7-7-7-7-7-7-7-7-7-7-7-7-7-7----|
e-0000000000000000-5555555555555555-9999999999999999-7-7-7-7-7-7-7-7-7-7-7-7-7-7-7-7----|

Guitar 2
e---0-----0-----0----0-------|
b---0-----0----10---10-------|
g---7-----7----11----9-------|
d---7-----7----12----7-------|
a---5-----5-----9----7-------|
e---0-----5-----9----7-------|

Guitar 3
e-----0-----0-----0-----0--------------|
b-----3-----3-----7-----5--------------|
g-----2-----2-----6-----6--------------|
d-----0-----0-----0-----0--------------|
a-----------x-----x-----x--------------|
e-----------3-----7-----5--------------|

Interlude
Guitar 1 & 2
e--------------------------------------------------------|
b--------------------------------------------------------|
g------------------------------------------7*------------|
d-----5-000--5-000--5-00--5-000--5-000-5-0-7*------------|
a-----5-000--5-000--5-00--5-000--5-000-5-0---------------|
d-----5-000--5-000--5-00--5-000--5-000-5-0---------------|

Guitar 3 play G and D

Before the second verse
Guitar 1 & 2
e------------------------------------|
b------------------------------------|
g------------------------------------|
d---5~--5555-5555--7~--7777-7777-----|
a---5~--5555-5555--7~--7777-7777-----|
d---5~--5555-5555--7~--7777-7777-----|
        .........      .........
*The dots mean Palm Muted

Guitar 3
e----0--0000--0--0000-0000-----|
b----3--3333--5--5555-5555-----|
g----2--2222--4--4444-4444-----|
d----0--0000--0--0000-0000-----|
a----x--xxxx--x--xxxx-xxxx-----|
e----3--3333--5--5555-5555-----|

Verse 2 same as Verse 1
Then Intro

Pre Chorus 2
Guitar 1
e---00000000-----------------|
b---33333333-----------------|
g---22222222-----------------|
d---00000000-----------------|
a---00000000-----------------|
d---00000000-----------------|
Palm Muted

Guitar 2
e---------------------------|
b---------------------------|
g----77777777---------------|
d----77777777---------------|
a----55555555---------------|
d---------------------------|
Palm Muted

Guitar 3
e---00000000----------------|
b---33333333----------------|
g---22222222----------------|
d---00000000----------------|
a---------------------------|
e---------------------------|
Palm Muted

Guitar 1
e----------------------------|
b-------------------5h7p5----|
g----7777-9999-----------7---|
d----xxxx--xxxx--------------|
a----5555-7777---------------|
d----0000-0000---------------|

Guitar 2
e---------------------------|
b---------------------------|
g----77777777---------------|
d----77777777---------------|
a----55555555---------------|
d----00000000---------------|

Guitar 3
e----22222222---------------|
b----33333333---------------|
g----22222222---------------|
d----00000000---------------|
a---------------------------|
e---------------------------|

Last Chorus
*same but make the second guitar more focused on the bass notes of the chords:
Guitar 2
e------------------------------|
b------------------------------|
g------------------------------|
d---0----5----9----7-----------|
a---0----5----9----7-----------|
d---0----5----9----7-----------|

Breakdown
Guitar 1 plays the solo that comes in the middle of the outro
e----------------------------------------------------------------------|
b-------------------------------------------12p10--10--10b10b---7h8p7--|
g---7/9/7/9-11b-9-7-6b--11-14b14b14b14b----------11--------------------|
d----------------------------------------------------------------------|
a----------------------------------------------------------------------|
d----------------------------------------------------------------------|

Guitar 2 & 3 play chorus chords

Guitar 1 & 2
e--------------------------------------------------------|
b--------------------------------------------------------|
g------------------------------------------7*------------|
d-----5-000--5-000--5-00--5-000--5-000-5-0-7*------------|
a-----5-000--5-000--5-00--5-000--5-000-5-0---------------|
d-----5-000--5-000--5-00--5-000--5-000-5-0---------------|

Guitar 3 play G and D

Guitar 1 eventually ends the song with this
e------------------------------------|
b------------------------------------|
g--11b11b11b11b11b--14b14b14b14b14b--|
d------------------------------------|
a------------------------------------|
d------------------------------------|
Tap to rate this tab
# A B C D E F G H I J K L M N O P Q R S T U V W X Y Z