Song name
# A B C D E F G H I J K L M N O P Q R S T U V W X Y Z

Ace Enders And A Million Different People - Sos tab

Highlighted       Show chord diagrams
Band: Ace Enders And A Million Different People
Song: SOS
Album: When I Hit The Ground
Tabbed By: Matt Florio; myspace.com/mattflorio
Email: Shempashland@yahoo.com

Hey, this is my tab for "SOS" by Ace Enders.
I remember seeing him play this and it seemed as if the chords were played the way I 
tabbed them. I am sure it is close to the real song. It's best if you listen to the song 
try to figure out the picking and struming patterns.
Let me know what you think.

Tuning: Standard

Verse
      E           C#maj7
e-----0-----------0---------------------|
b-----0-----------0---------------------|
g-----9-----------8---------------------|
d-----6-----------6---------------------|
a-----7-----------x---------------------|
e-----0-----------9---------------------|
"waiting here... I know I'll never see."

Pre Chorus
      A
e-----0-------------------00*---------------|
b-----0-------------------00----------------|
g-----8-------------------22----------------|
d-----6-------------------22----------------|
a-----0-------------------00----------------|
e-------------------------------------------|
"but again that fate..."
* comes in right before the chorus kicks in

Chorus
(2x)
e-----0----------0----------|-----0-------|
b-----0----------0----------|-----0-------|
g-----9----------9----------|-----9-------|
d-----9----------9----------|-----9-------|
a-----7----------x----------|-----0-------|
e-----0----------9----------|-------------|
"SOS to loneliness..."    "Let it go..."

Bridge

     Cmaj7  Bm    A
e------0-----0----0----0-----------------|
b------0-----0----0----0-----------------|
g------9-----9----9----9-----------------|
d------9-----9----9----9-----------------|
a------x-----x----0----x-----------------|
e------9-----7---------7-----------------|
"I got a place..."
Tap to rate this tab
 
# A B C D E F G H I J K L M N O P Q R S T U V W X Y Z