Song name
# A B C D E F G H I J K L M N O P Q R S T U V W X Y Z

Adam And The Ants - Stand And Deliver tab

This song is tabbed by a guy named Daniel Ormisher. I just wanted to add it as I think 
pretty good as a starter for this song.

* = strum chord a few times   ^= strum once


e|-------------------------------------------------------------------|
B|-------------------------------------------------------------------|
G|-------------------------------------------------------------------|
D|2-----2-----2-----0-----0------------------------------------------|
A|-----------------------------------3-----2-----3-------------------|
E|--------------------------------------------------------3-----1----|
verse - just play each of these chords a few times with the singing

Im the dandy highwayman......
e|-------------------------------------------------------------------|
B|*-----*-----*------------------------------------------------------|
G|5------------------------------------------------------------------|
D|5-----5-----3------------------------------------------------------|
A|3-----5-----3------------------------------------------------------|
E|------3-----1-----5-----5-----5-----5-----3-----3-----3-----3------|

Chorus

 stand and deliver       your money or your life
e|----------------------------------------------------------------------------------------|
B|*---------------------------------------------------------------------------------------|
G|5------------*------------*-------------------------------------------------------------|
D|5------------5------------3--------------2-----2-----2-----0-----0-----0----------------|
A|3------------5------------3--------------------------------------------------3-----2----|
E|-------------3------------1-------------------------------------------------------------|

solo
e|---------------------------------------------------------|
B|---------------------------------------------------------|
G|---------------------------------------------------------|
D|---2------2--4-----4--6------4/6----7----6--4---2--1-----|
A|-------2---------2---------2-----------------------------|
E|---------------------------------------------------------|


Even though you fool....
e|------------------------------------------------------|
B|^------------^----------------------------------------|
G|5------------5------------^------------*-----*--------|
D|5------------5------------7------------3-----5--------|
A|3------------2------------7------------3-----5--------|
E|--------------------------5------------1-----3--------|

not sure about the outro but if you play this (or something simillar) it sounds ok
La diddley qua qua....  (outro)

e  ----------------------------|
B  *-----*-----*---------------|
G  9---------------------------|
D  9-----9-----7---------------|
A  7-----9-----7---------------|
E  ------7-----5---------------|


LYRICS
I'm the dandy highwayman who you're too scared to mention
I spend my cash on looking flash and grabbing your attention
the devil take your stereo and your record collection!
the way you look you'll qualify for next year's old age pension!

Stand and deliver your money or your life!
try and use a mirror no bullet or a knife!

I'm the dandy highwayman so sick of easy fashion
the clumsy boots, peek-a-boo roots that people think so dashing
so what's the point of robbery when nothing is worth taking?
it's kind of tough to tell a scruff the big mistake he's making

Stand and deliver your money or your life!
try and use a mirror no bullet or a knife!

and even though you fool your souls
your conscience will be mine
all mine

We're the dandy highwaymen so tired of excuses
of deep meaning philosophies where only showbiz loses
we're the dandy highwaymen and here's our invitation
"throw your safety overboard and join our insect nation"

Stand and deliver your money or your life!
try and use a mirror no bullet or a knife!

and even though you fool your souls
your conscience will be mine, all mine

da diddley qa qa da diddley qa qa
da diddley qa qa da diddley qa qa

Stand and deliver your money or your life!
Stand and deliver your money or your life!...
Tap to rate this tab
# A B C D E F G H I J K L M N O P Q R S T U V W X Y Z