Song name
# A B C D E F G H I J K L M N O P Q R S T U V W X Y Z

Adema - Speculum tab

{COMPLETE GUITAR TAB WITH LYRICS AND CHORDS}

Artist   : Adema
Title    : Speculum
Album    : Adema

Tabbed by: dustin7up
E-mail   : dustin7up@gmail.com
Tuning   : Normal {E,A,D,G,B,e}


May 11, 2007


{NOTE: I know this might not be 100% perfect,
       this is just how I play it. And it sounds
       good to me. Hope you like it!}

CHORDS:
Bb = 113331
Bbm= 113321
Gb = 244322
Db = 446664
F  = 133211

Intro: (00:00 - 00:07)

     Bb    Bbm
e|-----------------|
B|-----------------|
G|-----------------|
D|-----------------| {x4}
A|-----------------|
E|---6-6---8/9/8---|

Verse 1: (00:08 - 00:42)

     Bbm     Gb    Db	     F           Bbm     Gb  Db        F
e|-------------------------------------------------------------------------|
B|-------2-----------6-----------------------2---------6-------------------|
G|-----3---------------6-----------2-------3-------------6-----------2-----|
D|-----------------------6-------3---3-----------4---------6-------3---3---|
A|---1-------------4-----------3---------1-----------4-----------3---------|
E|-----------2---------------1---------------------------------1-----------|
There's so many people dying, You complain about your situation. What about me?


     Bbm     Gb      Db	       F           Bbm     Gb  Db        F
e|-------------------------------------------------------------------------------------|
B|-------2-------------6-----------------------2---------6-----------------------------|
G|-----3---------3-------6-----------2-------3-------------6---------------------------|
D|-------------4-----------6-------3---3---------------------6-------------------------|
A|---1---------------4-----------3---------1-----------4-------------------------------|
E|-----------2-----------------1-------------------2-------------1---<14>--<9>--<13>---|
Half the world wouldn't know, What it's like to lose your seed. Maybe you can 
(How I feel)

Chorus: (00:43 - 00:59)

     Bb        Gb        Db	   F
e|-------------------------------------------|
B|-------------------------------------------|
G|---3-3-3-3-------------6-6-6-6-------------|
D|---3-3-3-3---4-4-4-4---6-6-6-6---3-3-3-3---| {x2}
A|---1-1-1-1---4-4-4-4---4-4-4-4---3-3-3-3---|
E|-------------2-2-2-2-------------1-1-1-1---|
I cannot reach that soul, You're probably watching over us.
Know that I think of you, It's killing me.

Verse 2: (01:00 - 01:42)

     Bbm     Gb      Db	       F           Bbm     Gb  Db        F
e|---------------------------------------------------------------------------|
B|-------2-------------6-----------------------2---------6-------------------|
G|-----3---------3-------6-----------2-------3-------------6-----------2-----|
D|-------------4-----------6-------3---3---------------------6-------3---3---|
A|---1---------------4-----------3---------1-----------4-----------3---------|
E|-----------2-----------------1-------------------2-------------1-----------|
			                 The guilt has lasted years, still cry, It was all planned out


     Bbm      Gb  Db	    F           Bbm      Gb      Db        F           Bbm     Gb  
     F
e|-------------------------------------------------------------------------------------------------------|
B|-------2----------6-----------------------2--------------6-----------------------2---------6-----------|
G|-----3--------------6-----------2-------3----------3-------6-----------2-------3-------------6---------|
D|------------4---------6-------3---3--------------4-----------6-------3---3---------------------6-------|
A|---1------------4-----------3---------1----------------4-----------3---------1-----------4-------------|
E|--------------------------1--------------------2-----------------1-------------------2-------------1---|
Why was I last to know? Don't you trust in me? The table's cold, it's too late, To make 
for these mistakes. Maybe you can't understand. (How I feel)

Chorus: (01:43 - 02:15)

     Bb        Gb        Db	   F
e|-------------------------------------------|
B|-------------------------------------------|
G|---3-3-3-3-------------6-6-6-6-------------|
D|---3-3-3-3---4-4-4-4---6-6-6-6---3-3-3-3---| {x2}
A|---1-1-1-1---4-4-4-4---4-4-4-4---3-3-3-3---|
E|-------------2-2-2-2-------------1-1-1-1---|
I cannot reach that soul, You're probably watching over us.
Know that I think of you, It's killing me. (How I feel)

     Bb        Gb        Db	   F
e|-------------------------------------------|
B|-------------------------------------------|
G|---3-3-3-3-------------6-6-6-6-------------|
D|---3-3-3-3---4-4-4-4---6-6-6-6---3-3-3-3---| {x2}
A|---1-1-1-1---4-4-4-4---4-4-4-4---3-3-3-3---|
E|-------------2-2-2-2-------------1-1-1-1---|
If I would have known, I can't say what I would have done.
If you could forgive, I'd like to rest with you someday.

Intro: (02:16 - 02:24)

     Bb    Bbm
e|-----------------|
B|-----------------|
G|-----------------|
D|-----------------| {x4}
A|-----------------|
E|---6-6---8/9/8---|

Solo: (02:25 - 02:40)
e|----------------------------------------------------|
B|----------------------------------------------------|
G|----------------------------------------------------|
D|---8--/11---11p10-10--/15---15-16-15--/11--11--/8---| {x2}
A|----------------------------------------------------|
E|----------------------------------------------------|

Chorus: (02:41 - 03:13)

     Bb        Gb        Db	   F
e|-------------------------------------------|
B|-------------------------------------------|
G|---3-3-3-3-------------6-6-6-6-------------|
D|---3-3-3-3---4-4-4-4---6-6-6-6---3-3-3-3---| {x2}
A|---1-1-1-1---4-4-4-4---4-4-4-4---3-3-3-3---|
E|-------------2-2-2-2-------------1-1-1-1---|
(How I feel) I cannot reach that soul, You're probably watching over us.
Know that I think of you, It's killing me. (How I feel)

     Bb        Gb        Db	   F
e|-------------------------------------------|
B|-------------------------------------------|
G|---3-3-3-3-------------6-6-6-6-------------|
D|---3-3-3-3---4-4-4-4---6-6-6-6---3-3-3-3---| {x2}
A|---1-1-1-1---4-4-4-4---4-4-4-4---3-3-3-3---|
E|-------------2-2-2-2-------------1-1-1-1---|
If I would have known, I can't say what I would have done.
If you could forgive, I'd like to rest with you someday.

Intro: (03:14 - 03:32)

     Bb    Bbm
e|-----------------|
B|-----------------|
G|-----------------|
D|-----------------| {x4}
A|-----------------|
E|---6-6---8/9/8---|
Tap to rate this tab
# A B C D E F G H I J K L M N O P Q R S T U V W X Y Z