Song name
# A B C D E F G H I J K L M N O P Q R S T U V W X Y Z

Adept - Suicide Note tab

This is the tab for the intro in "Suicide Note" by Adept.
I tabbed this in a few minutes, and I'm not even sure if it's in the right runing, but 
the sound is very accurate.
This part is repeated several times in the intro.

-Raigeki / AKH alex

e|-------3--------3----------2------------2------|
B|-----3---3----3---3------3---3--------3---3----|
G|-----------------------------------------------|
D|-----------------------------------------------|
A|----------------------2-----------2------------|
E|-3---------3-----------------------------------|


e|------0-----------0----------0----------3------|
B|----1---1-------3---3------3---3------3---3----|
G|------------0----------0-----------0-----------|
D|-----------------------------------------------|
A|--3--------------------------------------------|
E|-----------------------------------------------|
Tap to rate this tab
# A B C D E F G H I J K L M N O P Q R S T U V W X Y Z