Song name
# A B C D E F G H I J K L M N O P Q R S T U V W X Y Z

Adicts - Hurt tab

Song:Hurt
Album:Songs Of Praise
Artist:The Adicts
Year:1981
Tuning:Standard (E,A,D,G,B,E)


Intro x4:
E--------------------------------|
B--------------------------------|
G-10---999-101010----------------|
D-10x6-999-101010-10/11-11-11-11-|
A-8----777-8-8-8--10/11-11-11-11-|
E-----------------8-/9--9--9--9--|

Verse 1/It's Just bass for a bit then:
E------------------|
B------------------|
G------------------|
D------------------|
A------------------|
E-9~~-8~~-6~~-4~~--|

Chorus:
E-----------------------------|
B-----------------------------|
G-2-2-XXX-2-2-4-4-------------|
D-2-2-XXX-2-2-4-4-4-4-XXX-4-4-|
A-0-0-XXX-0-0-2-2-4-4-XXX-4-4-|
E-----------------2-2-XXX-2-2-|

E-----------------------------|
B-----------------------------|
G-2-2-XXX-2-2-4-4--10----9----|
D-2-2-XXX-2-2-4-4--10x6--9x6--|
A-0-0-XXX-0-0-2-2--8-----7----|
E-----------------------------|

Post-Chorus 1x2:
E-----------------|
B-----------------|
G-----------------|
D-X-X-X-X--11-----|
A-X-X-X-X--11x12--|
E-X-X-X-X--9------|

-this is where verse 2 would go
but unfortunately i could not figure it out.

Chorus 2:
E------------------------------|
B------------------------------|
G-2-2-XXX-2-2-4-4--------------|
D-2-2-XXX-2-2-4-4-4-4-XXX-4-4--|
A-0-0-XXX-0-0-2-2-4-4-XXX-4-4--|
E-----------------2-2-XXX-2-2--|

E------------------------------|
B------------------------------|
G-2-2-XXX-2-2-4-4---10----9----|
D-2-2-XXX-2-2-4-4---10x6--9x6--|
A-0-0-XXX-0-0-2-2---8-----7----|
E------------------------------|

Post-Chorus 2 x2:
E-----------------|
B-----------------|
G-----------------|
D-X-X-X-X--11-----|
A-X-X-X-X--11X12--|
E-X-X-X-X--9------|

Solo (Rhythm Part):
E-----------------------------|
B-----------------------------|
G-2-2-XXX-2-2-4-4-------------|
D-2-2-XXX-2-2-4-4-4-4-XXX-4-4-|
A-0-0-XXX-0-0-2-2-4-4-XXX-4-4-|
E-----------------2-2-XXX-2-2-|

E-------------------------------|
B-------------------------------|
G-2-2-XXX-2-2-4-4---10-----9----|
D-2-2-XXX-2-2-4-4---10x6---9x6--|
A-0-0-XXX-0-0-2-2---8------7----|
E-------------------------------|

Bridge (Part 1)x4:
E------------------|
B------------------|
G------------------|
D-2---3---4---5----|
A-2x6-3x6-4x6-5x6--|
E-0---1---2---3----|
  .   .   .   .

Bridge (Part 2): let ring
E---------------|
B---------------|
G---------------|
D-6---7---8-----|
A-6x6-7x6-8x10--|
E-4---5---6-----|

Outro:
E----------------------------------|
B----------------------------------|
G-10----9-9-9--10-10-10------------|
D-10x6--9-9-9--10-10-10---10/11----|
A-8-----7-7-7--8--8--8----10/11x4--|
E-------------------------8-/9-----|

Key:
.=Palm Mute
X=Pick Across Muted Strings

Here's A Link To The Song:
http://www.youtube.com/watch?v=l0M5X7JIQvA
Tap to rate this tab
 
# A B C D E F G H I J K L M N O P Q R S T U V W X Y Z