Song name
# A B C D E F G H I J K L M N O P Q R S T U V W X Y Z

Adicts - England tab

Band: Adicts
Song:England

tabbed by jam9383@yahoo.com


Intro

Piano then guitar does
e---------------------------------------------------------------------|
B---------------------------------------------------------------------|
G--12-12----10-10-------8-8-------8-8-------12-12-12-12---------------|
D--12-12----10-10-------8-8--8-8--8-8--8-8--12-12-12-12---------------|
A--10-10----8--8--------6-6--8-8--6-6--8-8--10-10-10-10---------------|
E----------------------------6-6-------6-8----------------------------|
Verse

e---------------------------------------------------------------------|
B---------------------------------------------------------------------|
G-8--8--------8--8----------------------------------------------------|
D-8--8--8--8--8--8--8--8----5-5-5-5-----------------------------------|
A-6--6--8--8--6--6--8--8----5-5-5-5-----------------------------------|
E-------6--6--------6--6----3-3-3-3-----------------------------------|

Chorus

e---------------------------------------------------------------------|
B---------------------------------------------------------------------|
G----------------------------8-8-8-8----------------------------------|
D-5-5-5-5--3-3-3-3--5-5-5-5--8-8-8-8----------------------------------|
A-5-5-5-5--3-3-3-3--5-5-5-5--6-6-6-6----------------------------------|
E-3-3-3-3--1-1-1-1--3-3-3-3-------------------------------------------|


If any corrections are needed contact and rate tabs
Tap to rate this tab
# A B C D E F G H I J K L M N O P Q R S T U V W X Y Z