Song name
# A B C D E F G H I J K L M N O P Q R S T U V W X Y Z

Adicts - Ode To Joy tab

Song:Ode To Joy
Album:Smart Alex
Artist:The Adicts
Year:1985
Tuning:Standard (E,A,D,G,B,E)

Intro Pt. 1
E-------|
B-------|
G-------|
D-------|
A-5-~~--|
E-------|

Intro Pt. 2
E------------------------------|
B------------------------------|
G------------------------X-7~--|
D------------------------X-7~--|
A-9-9-10-12-12-10-9-7-5--X-5~--|
E------------------------------|

Chorus 1(Part 1)
E---------------------------------|
B---------------------------------|
G-7-7-7-7-7-7-7-7--6----4----2----|
D-7-7-7-7-7-7-7-7--6x8--4x8--2x8--|  x2
A-5-5-5-5-5-5-5-5--4----2----0----|
E---------------------------------|

Chorus 1(Part 2)
E-------|
B-------|
G-------|
D-7-----|
A-7X30--|
E-5-----|

Chorus 2 Pt1
E---------------------|
B---------------------|
G---------------------|
D---------------------|
A-5~~--4~~--2~~--0~~--|
E---------------------|

Chorus 2 Pt2
E-------|
B-------|
G-------|
D-7-----|
A-7x30--|
E-5-----|

Final Chorus
E---------------------|
B---------------------|
G-7----6----4----2----|
D-7x8--6x8--4x8--2x8--|
A-5----4----2----0----|
E---------------------|

Song Structure:
-Intro Pt1 x1

-Intro Pt2 x4

-Chorus 1 Pt1 x2

-Chorus 1 Pt2 x1

-Chorus 1 Pt1 x1

-Chorus 2 Pt1 x2

-Chorus 2 Pt2 x1

-Final Chorus x3
Tap to rate this tab
# A B C D E F G H I J K L M N O P Q R S T U V W X Y Z