Song name
# A B C D E F G H I J K L M N O P Q R S T U V W X Y Z

Admiral Freebee - Ragsn Run tab

Rags'n run
by tom van laere
album : admiral freebee

One of the best belgian musicians of the moment. If you are a bob dylan fan and like the 
you should definately download some songs of the admiral.


Standard tuning
INTRO/VERSE
e|---------------------------------------------------|
B|---------1-----1-----1---------1-----1-----1-------|
G|---0---2-----0-----2---2-0---0---0------0----0-----|
D|-----------2-----2------------------3-----3-----3--|
A|-3---3---------------------1-----------------------|
E|---------------------------------------------------|

CHORUS
e|-------0-----0-----0-------------------------------|
B|---1-----1-----1-----1----------3-----3-----3------|
G|-0---0-----0-----0-----0----3-----3-----3-----3----|
D|--------------------------3---3-----3-----3-----3--|
A|---------------------------------------------------|
E|---------------------------------------------------|
Tap to rate this tab
# A B C D E F G H I J K L M N O P Q R S T U V W X Y Z