Song name
# A B C D E F G H I J K L M N O P Q R S T U V W X Y Z

Adolescents - Self Destruct tab

song: self destruct
by:adolescents

verse
E---------------------|
B---------------------|
G---------------------|
D-------8-88-77-------|
A--7-77-6-66-55-8888--|
E--5-55---------6666--|

chorus
E-------------------|
B-------------------|
G-------------------|
D----------6-6-6-6--|
A--5-5-5-5-4-4-4-4--|
E--3-3-3-3----------|

timing:
verse......6x
chorus.....4x
verse......4x
chorus.....4x
bass solo..2x
solo.......?

the bass solo is just the verse. but the guitar solo is like well first of all its too 
to hear for me to learn it. second of all its basically a bunch of high pitch noises and 
on the E B G and D strings. like they didnt plan it out like frank agnew just plays it different every time you know.
Tap to rate this tab
 
# A B C D E F G H I J K L M N O P Q R S T U V W X Y Z