Song name
# A B C D E F G H I J K L M N O P Q R S T U V W X Y Z

Advent - Nothing tab

www.myspace.com/adventnc

ADVENT - NOTHING

    c#|-----------------|
    G#|-----------------|
GTR  E|-----------------|    
1+2  B|-------7-6-8-7-6-|              
    F#|-0-0-0-5-4-6-5-4-|
     B|-0-0-0-----------|
        PMP M

    c#|----------------------------------|
    G#|----------------------------------|
GTR  E|----------------------------------|    
1+2  B|-------7-6-8-7-6-8----------------| x4             
    F#|-0-0-0-5-4-6-5-4-6-03--03--03--03-|
     B|-0-0-0-------------03--03--03--03-|
        PMP M

    c#|---------------------|
    G#|---------------------|
GTR  E|---------------------|    
1+2  B|-0----------7-6-1----|              
    F#|-0----0-0-0-5-4-1----|
     B|-0----0-0-0-----1----|
             PMP M        

    c#|----------------------------------|
    G#|----------------------------------|
GTR  E|----------------------------------|    
1+2  B|-------7-6-8-7-6-8----------------| x4             
    F#|-0-0-0-5-4-6-5-4-6-03--03--03--03-|
     B|-0-0-0-------------03--03--03--03-|
        PMP M

    c#|-------------------|
    G#|-------------------|
GTR  E|-------------------|    
1+2  B|-------7-6-8-7-6-7-|              
    F#|-0-0-0-5-4-6-5-4-5-|
     B|-0-0-0-------------|
        PMP M

    c#|------------|
    G#|----2BU-----|
GTR  E|------------|    
 1   B|--------4-2-|              
    F#|-03-----2-2-|
     B|-03-----2-2-|

    c#|------------|
    G#|------------|
GTR  E|------------|    
 2   B|--------4-2-|              
    F#|-03-----2-2-|
     B|-03-----2-2-|

    c#|-------------------------------|
    G#|-------------------------------|
GTR  E|-------------------------------|    
1+2  B|-3--6--4-4-4-------------------|              
    F#|-3--6--2-2-2-0h3-0h3-0-0h3-0h3-|
     B|-3--6--2-2-2-0h3-0h3-0-0h3-0h3-|

    c#|-------------|
    G#|-------------|
GTR  E|-------------|    
1+2  B|-3--6--4-4-4-|              
    F#|-3--6--2-2-2-|
     B|-3--6--2-2-2-|

    c#|------------|
    G#|----2BU-----|
GTR  E|------------|    
 1   B|--------4-2-|              
    F#|-03-----2-2-|
     B|-03-----2-2-|

    c#|------------|
    G#|------------|
GTR  E|------------|    
 2   B|--------4-2-|              
    F#|-03-----2-2-|
     B|-03-----2-2-|

    c#|-------------------------------|
    G#|-------------------------------|
GTR  E|-------------------------------|    
1+2  B|-3--6--4-4-4-------------------|              
    F#|-3--6--2-2-2-0h3-0h3-0-0h3-0h3-|
     B|-3--6--2-2-2-0h3-0h3-0-0h3-0h3-|

    c#|---------------------------------|
    G#|---------------------------------|
GTR  E|---------------------------------|    
1+2  B|-3--6--4-4-4-------------------4-|              
    F#|-3--6--2-2-2-0h3-0h3-3-2-6-3-2-2-|
     B|-3--6--2-2-2-0h3-0h3-3-2-6-3-2-2-|

    c#|-------------------------------------|
    G#|-------------------------------------|
GTR  E|-------------------------------------|    
 1   B|-------------------------------------|              
    F#|-0-0-0-0-0-0-0-0-0-0-0-0-0-0-0-0-1-0-|
     B|-0-0-0-0-0-0-0-0-0-0-0-0-0-0-0-0-1-0-|
        P M P M P M P M P M P M P M P M

    c#|--------------------------------------|
    G#|--------------------------------------|
GTR  E|--------------------------------------|    
 2   B|--------------------------------------|              
    F#|----------------------------------1-0-|
     B|----------------------------------1-0-|

    c#|--------------------------------|
    G#|--------------------------------|
GTR  E|--------------------------------|    
 1   B|--------------------------------|              
    F#|-0-0-0-0-0-0-0-0----------------|
     B|-0-0-0-0-0-0-0-0----------------|
        P M P M P M P M 

    c#|---------------------------------|
    G#|---------------------------------|
GTR  E|---------------------------------|    
 2   B|-----------------------5-4-------|              
    F#|------------------6-3--3-2-3-6-2-|
     B|------------------6-3------3-6-2-|

    c#|-------------------------------------|
    G#|-------------------------------------|
GTR  E|-------------------------------------|    
 1   B|-------------------------------------|              
    F#|-0-0-0-0-0-0-0-0-0-0-0-0-0-0-0-0-1-0-|
     B|-0-0-0-0-0-0-0-0-0-0-0-0-0-0-0-0-1-0-|
        P M P M P M P M P M P M P M P M

    c#|--------------------------------------|
    G#|--------------------------------------|
GTR  E|--------------------------------------|    
 2   B|--------------------------------------|              
    F#|----------------------------------1-0-|
     B|----------------------------------1-0-|

    c#|---------------------------------|
    G#|---------------------------------|
GTR  E|---------------------------------|    
1+2  B|---------------------------------|              
    F#|-0-0-0-0-0-0-0-0-0-0-0-0-0-0-0-0-|
     B|-0-0-0-0-0-0-0-0-0-0-0-0-0-0-0-0-|
        P M P M P M P M P M P M P M P M

    c#|---------------------------------|
    G#|---------------------------------|
GTR  E|---------------------------------|    
 1   B|---------------------------------|              
    F#|-0-0-0-0-0-0-0-0-0-0-0-0-0-0-0-0-|
     B|-0-0-0-0-0-0-0-0-0-0-0-0-0-0-0-0-|
        P M P M P M P M P M P M P M P M

    c#|-------------------|
    G#|-------------------|
GTR  E|-------------------|    
 2   B|-------7-6-8-7-6-8-|               
    F#|-0-0-0-5-4-6-5-4-6-|
     B|-0-0-0-------------|
        PMP M

----------------------------------

    c#|-------------------|
    G#|-------------------|
GTR  E|-------------------|    
1+2  B|-------7-6-8-7-6-8-| x4              
    F#|-0-0-0-5-4-6-5-4-6-|
     B|-0-0-0-------------|
        PMP M

    c#|----------------|
    G#|----------------|
GTR  E|----------------|    
1+2  B|------5-4-------|              
    F#|-6-3--3-2-3-6-2-|
     B|-6-3------3-6-2-|

play whole thing x4
---------------------------------

    c#|------------|
    G#|------------|
GTR  E|------------|    
1+2  B|-1-----0----|              
    F#|-1--0--0----|
     B|-1--0--0----|
          PM

    c#|-------------------|
    G#|-------------------|
GTR  E|-------------------|    
1+2  B|------5-4----------|              
    F#|-6-3--3-2-3-6323-0-|
     B|-6-3------3-6323-0-|

END
Tap to rate this tab
# A B C D E F G H I J K L M N O P Q R S T U V W X Y Z