Song name
# A B C D E F G H I J K L M N O P Q R S T U V W X Y Z

Aepoc - Had Enough tab

Help us improve GuitareTab! Take a short survey!
AEPOC - "Had Enough"
(Standard Tuning)
tabbed by: j.kessenich

 [verse]
e|---------------------------------------------------------|
B|---------------------------------------------------------|
G|---------------------------------------------------------|
D|-5-x-x-5-x-5-x-5-x-x-5/7-x-x-7-x-7-x-7-x-x-7\------------|
A|-5-x-x-5-x-5-x-5-x-x-5/7-x-x-7-x-7-x-7-x-x-7\---repeat---|
E|-3-x-x-3-x-3-x-3-x-x-3/5-x-x-5-x-5-x-5-x-x-5\------------|

 [chorus]
e|---------------------------------------------------------|
B|---------------------------------------------------------|
G|---------------------------------------------------------|
D|5---5~~~~~~~~~~5---5-x-x-5-x-5-x-5-x-x-------------------|
A|5---5~~~~~~~~~~5---5-x-x-5-x-5-x-5-x-x----repeat---------|
E|3h5p3~~~~~~~~~~3h5p3-x-x-3-x-3-x-3-x-x-------------------|

 [chorus end}
e|---------------------------------------------------------|
B|---------------------------------------------------------|
G|---------------------------------------------------------|
D|5---5x---------------------------------------------------|
A|5---5x---------------------------------------------------|
E|3h5p3x---------------------------------------------------|
Related for Had Enough tab