Song name
# A B C D E F G H I J K L M N O P Q R S T U V W X Y Z

Aepoc - The Real Thing tab

AEPOC - "The Real Thing"
(Standard Tuning)
tabbed by: j.kessenich

Clean:
e|-------------------------------------------|
B|-------------------------------------------|
G|-------------------------------------------|
D|-------------------------------------------|
A|--7-7--7-77\4-4-4--4-44/7---|-repeat-------|
E|-0-0-00-0----0-0-00-0-------|--------------|

Distorted:
e|-------------------------------------------|
B|-------------------------------------------|
G|-------------------------------------------|
D|------7~~~~-----4~~~~---|------------------|
A|-44/7-7~~~~77\4-4~~~~---|-repeat-----------|
E|------0~~~~-----0~~~~---|------------------|

Interlude:
e|----------------------------------------------|
B|----------------------------------------------|
G|----------------------------------------------|
D|-5/7-7-7-77-5/7-7-7-77-7\4-4-4-44-4/6-6-6-66--|
A|-5/7-7-7-77-5/7-7-7-77-7\4-4-4-44-4/6-6-6-66--|
E|----------------------------------------------|
then play:
e|--------------------------------------------------------------|
B|--------------------------------------------------------------|
G|--------------------------------------------------------------|
D|-5/7-7-7-77-5/7-7-7-77-7/9-9-9-99-7/9-9-9-99-9\3~~~-----------|
A|-5/7-7-7-77-5/7-7-7-77-7/9-9-9-99-7/9-9-9-99-9\3~~~-3/5-5~~~~-|
E|--------------------------------------------------------------|
Tap to rate this tab
# A B C D E F G H I J K L M N O P Q R S T U V W X Y Z