Song name
# A B C D E F G H I J K L M N O P Q R S T U V W X Y Z

Aer - Water On The Moon tab

-------------------------------------------------------------------------------
			     Water On The Moon - Aer
-------------------------------------------------------------------------------
Tabbed by: GuitarGuy127
Tuning: Standard

Here are all the parts, Message me if you have any questions or corrections.

Intro/Chorus Part 1
	E	  B			C#m		A
e|------------------------------------------| This can be played as 1 part or 2 parts 
B|--------9-----7--7h9p7------9-------5-5---| (top 3 strings and bottom 3)
G|----------------------7-------------------|
D|------------------------------------------|X2
A|----/7------------------------------------|
E|----------7----7--------9---9----5---5----|
	
Intro/Chorus Part 2
	F#m		E
e|---9---9-----7---7--------------| Just play the D, G and B strings for the chords
B|---10--10----9------9-----------|
G|---11--11----9---------9--------|
D|---11--11----9------------9\----|X2 second time you repeat the slide a couple times
A|---9---9-----7------------------|
E|--------------------------------|
	
Verse Part 1
	C#m		E		B
e|-----------------------------| You don't always play the B
B|-----------------------------|
G|-----------------------------|
D|---6-6--------9-9-------4----|X4
A|---4-4--------7-7-------2----|
E|-----------------------------|

Verse Part 2
	C#m7		E		B
e|---0-0-------------7-7-------2----| You don't always play the whole chord
B|---0-0-------------9-9-------4----| You can also add in the lick in parenthesis
G|---4-4-------------9-9-------4----|
D|---2-2-(6p4h6p4)---9-9-------4----|X A fair amount
A|---4-4-------------7-7-------2----|
E|----------------------------------|



Pre-Chorus

e|---4----7-7----7-7/9-----|
B|---4----7-7----7-7/9-----|
G|---4----8-8----8-8/9-----|
D|---6----9-9----9-9/11----|
A|-------------------------|
E|-------------------------|

Outro
	Just Comp and play some licks in C#m (C# Aeolian) Here's the scale in a couple positions
e|----9--11-12----|----4-5--7--9----|------7--9-------|
B|----9-10--12----|----4-5--7-------|------7--9-10----|
G|--8-9--11-------|----4--6---------|----6--8-9-------|
D|----9--11-------|----4--6-7-------|----6-7--9-------|
A|----9--11-12----|----4--6-7-------|----6-7--9-------|
E|----9--11-12----|-----------------|------7--9-------|

Tap to rate this tab
 
# A B C D E F G H I J K L M N O P Q R S T U V W X Y Z