Song name
# A B C D E F G H I J K L M N O P Q R S T U V W X Y Z

Afi - Total Immortal tab

Totalimmortal
AFI

Intro
e|-------------------------------------------------------|
b|-------------------------------------------------------|
g|----9-----7-----9-------------7-----9-----7--12--14--9-|
d|-2--9--5--7--2--9--5-5-5-5-5--7--2--9--5--7--12--14--9-|
a|-2--7--5--5--2--7--5-5-5-5-5--5--2--7--5--5--10--12--7-|
E|-0-----3-----0-----3-3-3-3-3-----0-----3---------------|
                       . . . . 
Verse
e|-------------------------------------------------------|
b|-B---------------10-12-8-10-7-8------------------------|
g|--A---------------------------------------------10-----|
d|---S----7--9--5-------------------999999999999--10-----|
a|----S---7--9--5-------------------999999999999---8-----|
E|--------5--7--3-------------------777777777777---------|
                    .  . .  . . .   ............ 
Pre-Chorus
e|-------------------------------------------------------|
b|-------------------------------------------------------|
g|-------------------------------------------------------|
d|-222222222222222222222222222222222222222222222--2------|
a|-222222222222222222222222222222222222222222222--2------|
E|-000000000000000000000000000000000000000000000--0------|
   .............................................
Chorus
e|-------------------------------------------------------|
b|-------------------------------------------------------|
g|-------7--9--7--12------------7--9--11--12--14---------|
d|-2--5--7--9--7--12------2--5--7--9--11--12--14---------|
a|-2--5--5--7--5--10------2--5--5--7---9--10--12---------|
E|-0--3-------------------0--3---------------------------|

e|-------------------------------------------------------|
b|-------------------------------------------------------|
g|------99-99-99--99-99-77--99-99-99--99-99-99/10--9-----|
d|-2----99-99-99--99-99-77--99-99-99--99-99-99/10--9-----|
a|-2----77-77-77--77-77-55--77-77-77--77-77-77/-8--7-----|
E|-0-----------------------------------------------0-----|

End With
e|---------|
b|---------|
g|---------|
d|----2~---|
a|----2~---|
E|----0~---|
Tap to rate this tab
# A B C D E F G H I J K L M N O P Q R S T U V W X Y Z