Song name
# A B C D E F G H I J K L M N O P Q R S T U V W X Y Z

Afi - Last Caress tab

Really love this cover, possibly even more than the original, hope its understandable.

E||--------------------|----------------------|--------------------|
B||--------------------|----------------------|--------------------|
G||--------------------|----------------------|--------------------|
D||--------------------|----------10----12----|--------------------|
A||--10----------------|----------8-----10----|--10----------------|
E||--8-----------------|----------------------|--8-----------------|


                                                                 
----------------------|--------------------|--------------------|
----------------------|--------------------|--------------------|
----------------------|--------------------|--------------------|
----------10----12----|--10----------------|--------------------|
----------8-----10----|--8-----------------|--12----------------|
----------------------|--------------------|--10----------------|


                                                                
--------------------------------|------------------------------|
--------------------------------|------------------------------|
--------------------------------|------------------------------|
--------------------------------|------------------10----12----|
--10----10--10--10--10--10--10--|--10--10--10--10--8-----10----|
--8-----8---8---8---8---8---8---|--8---8---8---8---------------|


                                                                
--------------------------------|------------------------------|
--------------------------------|------------------------------|
--------------------------------|------------------------------|
--------------------------------|------------------10----12----|
--10----10--10--10--10--10--10--|--10--10--10--10--8-----10----|
--8-----8---8---8---8---8---8---|--8---8---8---8---------------|


                                                                
--------------------------------|------------------------------|
--------------------------------|------------------------------|
--------------------------------|------------------------------|
--------------------------------|------------------10----12----|
--10----10--10--10--10--10--10--|--10--10--10--10--8-----10----|
--8-----8---8---8---8---8---8---|--8---8---8---8---------------|


                                                                
--------------------------------|------------------------------|
--------------------------------|------------------------------|
--------------------------------|------------------------------|
--------------------------------|------------------10----12----|
--10----10--10--10--10--10--10--|--10--10--10--10--8-----10----|
--8-----8---8---8---8---8---8---|--8---8---8---8---------------|


                                                                  
--------------------------------|--------------------------------|
--------------------------------|--------------------------------|
--------------------------------|--------------------------------|
--10----10--10--10--10--10--10--|--------------------------------|
--8-----8---8---8---8---8---8---|--12----12--12--12--12--12--12--|
--------------------------------|--10----10--10--10--10--10--10--|


                                                                  
--------------------------------|--------------------------------|
--------------------------------|--------------------------------|
--------------------------------|--------------------------------|
--------------------------------|--------------------------------|
--10----10--10--10--10--10--10--|--10--10--10--10--10----10--10--|
--8-----8---8---8---8---8---8---|--8---8---8---8---8-----8---8---|


                                                                  
--------------------------------|--------------------------------|
--------------------------------|--------------------------------|
--------------------------------|--------------------------------|
--10----10--10--10--10--10--10--|--12----12--12--12--12--12--12--|
--8-----8---8---8---8---8---8---|--10----10--10--10--10--10--10--|
--------------------------------|--------------------------------|


                                                      
---------------------------|-------------------------|
---------------------------|-------------------------|
---------------------------|-------------------------|
----------------9----9--9--|-------------------------|
--10----10--10--7----7--7--|--7----7--7--7--7--7--7--|
--8-----8---8--------------|--5----5--5--5--5--5--5--|


                                                                  
--------------------------------|--------------------------------|
--------------------------------|--------------------------------|
--------------------------------|--------------------------------|
--10----10--10--10--10--10--10--|--12----12--12--12--12--12--12--|
--8-----8---8---8---8---8---8---|--10----10--10--10--10--10--10--|
--------------------------------|--------------------------------|


                                                                        
|-----------------------------------|---------------------------------||
|-----------------------------------|---------------------------------||
|*----------------------------------|--------------------------------*||
|*----------------------------------|--10--10--10--12----12--12--12--*||
|---10--10--10--10--10--10--10--10--|--8---8---8---10----10--10--10---||
|---8---8---8---8---8---8---8---8---|---------------------------------||


                                                                
--------------------------------|------------------------------|
--------------------------------|------------------------------|
--------------------------------|------------------------------|
--------------------------------|------------------10----12----|
--10----10--10--10--10--10--10--|--10--10--10--10--8-----10----|
--8-----8---8---8---8---8---8---|--8---8---8---8---------------|


                                                                
--------------------------------|------------------------------|
--------------------------------|------------------------------|
--------------------------------|------------------------------|
--------------------------------|------------------10----12----|
--10----10--10--10--10--10--10--|--10--10--10--10--8-----10----|
--8-----8---8---8---8---8---8---|--8---8---8---8---------------|


                                                                  
--------------------------------|--------------------------------|
--------------------------------|--------------------------------|
--------------------------------|--------------------------------|
--10----10--10--10--10--10--10--|--------------------------------|
--8-----8---8---8---8---8---8---|--12----12--12--12--12--12--12--|
--------------------------------|--10----10--10--10--10--10--10--|


                                                                  
--------------------------------|--------------------------------|
--------------------------------|--------------------------------|
--------------------------------|--------------------------------|
--------------------------------|--------------------------------|
--10----10--10--10--10--10--10--|--10--10--10--10--10----10--10--|
--8-----8---8---8---8---8---8---|--8---8---8---8---8-----8---8---|


                                                                  
--------------------------------|--------------------------------|
--------------------------------|--------------------------------|
--------------------------------|--------------------------------|
--10----10--10--10--10--10--10--|--12----12--12--12--12--12--12--|
--8-----8---8---8---8---8---8---|--10----10--10--10--10--10--10--|
--------------------------------|--------------------------------|


                                                      
---------------------------|-------------------------|
---------------------------|-------------------------|
---------------------------|-------------------------|
----------------9----9--9--|-------------------------|
--10----10--10--7----7--7--|--7----7--7--7--7--7--7--|
--8-----8---8--------------|--5----5--5--5--5--5--5--|


                                                                  
--------------------------------|--------------------------------|
--------------------------------|--------------------------------|
--------------------------------|--------------------------------|
--10----10--10--10--10--10--10--|--12----12--12--12--12--12--12--|
--8-----8---8---8---8---8---8---|--10----10--10--10--10--10--10--|
--------------------------------|--------------------------------|


                                                                    
----------------------------------|--------------------------------|
----------------------------------|--------------------------------|
----------------------------------|--------------------------------|
----------------------------------|--10--10--10--12----12--12--12--|
--10--10--10--10--10--10--10--10--|--8---8---8---10----10--10--10--|
--8---8---8---8---8---8---8---8---|--------------------------------|


                                                                    
----------------------------------|--------------------------------|
----------------------------------|--------------------------------|
----------------------------------|--------------------------------|
----------------------------------|--10--10--10--12----12--12--12--|
--10--10--10--10--10--10--10--10--|--8---8---8---10----10--10--10--|
--8---8---8---8---8---8---8---8---|--------------------------------|


                                                                
--------------------------------|------------------------------|
--------------------------------|------------------------------|
--------------------------------|------------------------------|
--------------------------------|------------------10----12----|
--10----10--10--10--10--10--10--|--10--10--10--10--8-----10----|
--8-----8---8---8---8---8---8---|--8---8---8---8---------------|


                                                                
--------------------------------|------------------------------|
--------------------------------|------------------------------|
--------------------------------|------------------------------|
--------------------------------|------------------10----12----|
--10----10--10--10--10--10--10--|--10--10--10--10--8-----10----|
--8-----8---8---8---8---8---8---|--8---8---8---8---------------|


                                                                  
--------------------------------|--------------------------------|
--------------------------------|--------------------------------|
--------------------------------|--------------------------------|
--10----10--10--10--10--10--10--|--------------------------------|
--8-----8---8---8---8---8---8---|--12----12--12--12--12--12--12--|
--------------------------------|--10----10--10--10--10--10--10--|


                                                                  
--------------------------------|--------------------------------|
--------------------------------|--------------------------------|
--------------------------------|--------------------------------|
--------------------------------|--------------------------------|
--10----10--10--10--10--10--10--|--10--10--10--10--10----10--10--|
--8-----8---8---8---8---8---8---|--8---8---8---8---8-----8---8---|


                                                                  
--------------------------------|--------------------------------|
--------------------------------|--------------------------------|
--------------------------------|--------------------------------|
--10----10--10--10--10--10--10--|--12----12--12--12--12--12--12--|
--8-----8---8---8---8---8---8---|--10----10--10--10--10--10--10--|
--------------------------------|--------------------------------|


                                                      
---------------------------|-------------------------|
---------------------------|-------------------------|
---------------------------|-------------------------|
----------------9----9--9--|-------------------------|
--10----10--10--7----7--7--|--7----7--7--7--7--7--7--|
--8-----8---8--------------|--5----5--5--5--5--5--5--|


                                                                         
--------------------------------|--------------------|
--------------------------------|--------------------|
--------------------------------|--------------------|
--10----10--10--10--10--10--10--|--12----------------|
--8-----8---8---8---8---8---8---|--10----------------|
--------------------------------|--------------------|


                                                                            
Pause here....Then after "One Last Caress"



----------------------------------|
----------------------------------|
----------------------------------|
----------------------------------|
--10--10--10--10--10--10--10--10--|
--8---8---8---8---8---8---8---8---|


                                                                    
--------------------------------|----------------------------------|
--------------------------------|----------------------------------|
--------------------------------|----------------------------------|
--10--10--10--12----12--12--12--|----------------------------------|
--8---8---8---10----10--10--10--|--10--10--10--10--10--10--10--10--|
--------------------------------|--8---8---8---8---8---8---8---8---|


                                                                    
--------------------------------|----------------------------------|
--------------------------------|----------------------------------|
--------------------------------|----------------------------------|
--10--10--10--12----12--12--12--|----------------------------------|
--8---8---8---10----10--10--10--|--10--10--10--10--10--10--10--10--|
--------------------------------|--8---8---8---8---8---8---8---8---|


                                                                    
--------------------------------|----------------------------------|
--------------------------------|----------------------------------|
--------------------------------|----------------------------------|
--10--10--10--12----12--12--12--|----------------------------------|
--8---8---8---10----10--10--10--|--10--10--10--10--10--10--10--10--|
--------------------------------|--8---8---8---8---8---8---8---8---|


                                                                    
--------------------------------|----------------------------------|
--------------------------------|----------------------------------|
--------------------------------|----------------------------------|
--10--10--10--12----12--12--12--|----------------------------------|
--8---8---8---10----10--10--10--|--10--10--10--10--10--10--10--10--|
--------------------------------|--8---8---8---8---8---8---8---8---|


                                                                    
--------------------------------|----------------------------------|
--------------------------------|----------------------------------|
--------------------------------|----------------------------------|
--10--10--10--12----12--12--12--|----------------------------------|
--8---8---8---10----10--10--10--|--10--10--10--10--10--10--10--10--|
--------------------------------|--8---8---8---8---8---8---8---8---|


                                                                    
--------------------------------|----------------------------------|
--------------------------------|----------------------------------|
--------------------------------|----------------------------------|
--10--10--10--12----12--12--12--|----------------------------------|
--8---8---8---10----10--10--10--|--10--10--10--10--10--10--10--10--|
--------------------------------|--8---8---8---8---8---8---8---8---|


                                                                    
--------------------------------|----------------------------------|
--------------------------------|----------------------------------|
--------------------------------|----------------------------------|
--10--10--10--12----12--12--12--|----------------------------------|
--8---8---8---10----10--10--10--|--10--10--10--10--10--10--10--10--|
--------------------------------|--8---8---8---8---8---8---8---8---|


                                                                         
--------------------------------|--------------------|
--------------------------------|--------------------|
--------------------------------|--------------------|
--10--10--10--12----12--12--12--|--------------------|
--8---8---8---10----10--10--10--|--10----------------|
--------------------------------|--8-----------------|
Tap to rate this tab
 
# A B C D E F G H I J K L M N O P Q R S T U V W X Y Z